Chordie logo

man in the box   Alice In Chains







Received: from animal-farm.nevada.edu by redrock.nevada.edu (5.65c/M1.4)
	with SMTP id ; Fri, 18 Jun 1993 23:15:58 -0700
Received: from iastate.edu (vincent1.iastate.edu) by animal-farm.nevada.edu id ; Fri, 18 Jun 1993 23:15:53 -0700
Received: by iastate.edu with sendmail-5.57/4.7 
	id ; Sat, 19 Jun 93 01:15:49 -0500
Date: Sat, 19 Jun 93 01:15:49 -0500

Message-Id: 
To: jamesb@animal-farm.nevada.edu


	Here's some (fairly) old Alice In Chains I transcribed.  I first
      did it just because I liked it, then my band started using it as a
      warm-up song.  Mentioning my band, i'd like to plug it here real
      quick. :)  The name's Fools Journey, we play kind of a heavy-
      alternative type music.  If you'd like a tape (or an upcoming
      CD..) ... get in touch with me at jkcable@iastate.edu.  Anyway, 
      hope you enjoy the tab!

------------------8ve    sewn   them    shut.

			       A
|---------------------------------|---------------------------------|
|------------------------------2--|---------------------------------|
|------------------------------2--|---------------------------------|
|------------------------------2--|---------------------------------|
|------------------------------0--|---------------------------------|
|---------------------------------|-----------------------0----3----|
							  PM........

_GUITAR SOLO___________________________________________________________________

  N.C.  (E5)
  Gtr. 3 (w/dist and wah pedal)
  w/Rhy.Fig.2
|---------------------------------|---------------------------------|
|---------------------------------|---------------------------------|
|---------------------------------|---------------------------------|
|---------------------------------|---------------------------------|
|--5t7----------------------------|---------------------------------|
|---------------------------------|---------------------------------|
 (grad. close pedal)                (grad. open pedal)
								 
								 hold bend..
|---------------------------------|---------------------------------|
|---------------------------------|-----------------------------10f-|
|--------7h9---9F--------9--7-----|---------------------------------|
|--7h9-------------------------9--|--8---7---5---7-----7f--(7v)-----|
|---------------------------------|---------------------------------|
|---------------------------------|---------------------------------|

	...keep holding bend................................
	|--------------------------------------------------|
	|--10--10--10--10--10--10--10--10--10--10--10--10--|
	|--------------------------------------------------|
	|--------------------------------------------------|
	|--------------------------------------------------|
	|--------------------------------------------------|
	 (gradually open wah pedal)

	     ..hold bend...........
	     |-----------------------------------------|
	     |--10B--10--10--10--10--10f--(10)p8-------|
	     |-------------------------------------9v--|
	     |-----------------------------------------|
	     |-----------------------------------------|
	     |-----------------------------------------|


      |-----------------------------------------12--15--15F--|
      |-------12--12h15p12-12h15p12--15fv--15f---------------|
      |--14f-------------------------------------------------|
      |------------------------------------------------------|
      |------------------------------------------------------|
      |------------------------------------------------------|
				    G5             G6  G5     G6  G5
					     hold bend...
		|-------15--12--------------------|
		|---------------------------------|
		|---------------12h14v-------14f--|
		|---------------------------------|
		|---------------------------------|
		|---------------------------------|

Gtr. 3 w/Rhy.Fig. 3                            G6  G5     G6  G5 
...keep holding bend................................................
  G5             G6  G5     G6  G5 
|---------------------------------|---------------------------------|
|----------15v--------------------|---------------------------------|
|---------(14v)-------------------|---------------------------------|    
|---------------------------------|---------------------------------|   
|---------------------------------|---------------------------------|   
|---------------------------------|---------------------------------| 
|                                                                   |
|            G6  G5        G6   G5                                  |
|.................(feedback)....................................... |                                 |
|---------------------------------|---------------------------------|
|---------------------------------|---------------------15----------|
|---------------------------------|---------------------------------|
|---------------------------------|---------------------------------|
|---------------------------------|---------------------------------|
|---------------------------------|---------------------------------|
		  pitch: D

 Gtr. 4
|---------------------------------|---------------------------------------|
|--15--------15v------------------|---------------------------------------|
|--14--------14v------------------|---------X------X--X--14B--14--12------|
|-----------------14--------------|--12h14--X--14--X--X--------------14v--|
|------X--X-----------------X--X--|---------------------------------------|
|------X--X-----------------X--X--|---------------------------------------|
|                                                                         |
|                                                                         |
|---------------------------------|---------------------------------------|
|----------12---------------------|----------------------15v--------------|
|--------------15--14--12--12fv---|----12f----12---9----------------------|
|---------------------------------|---------------------------------------|
|---------------------------------|---------------------------------------|
|---------------------------------|---------------------------------------|

	 Gtr. 4                               slide down
	|--12--15--15--15f--(15)p12--------------|
	|----------------------------15v-----15--|
	|----------------------------------------|
	|----------------------------------------|
	|----------------------------------------|
	|----------------------------------------|  
	
		 slide up

|---------------------------------|--------------------------------------|
|--12---------------X---------12--|--------------------------------------|
|--12--------(12)---X---------12--|----------------------------------2f--|
|--12--------(12)---X---12----12--|--X-----------------------------------|
|------X--X-----------------------|--X--------7v---X--X--X--X--5h7-------|
|------X--X-----------------------|--X--3h5------------------------------|

		E5
	    Gtrs. 1 and 2
	     w/Fill 3             D.S. % al Coda
		|--------------------------|
		|--------------------------|
		|--------------------------|
		|-------5---2-------2------|  
		|---------------5----------|
		|-----------------------3--|  

   Coda
      N.C.  (E5)
      Gtr. 2 w/Rhy.Fig. 1 (2 times)
  |---------------------------------|---------------------------------|
  |---------------------------------|---------------------------------|
  |-----------7v-------7h9v---------|---------------------------------|
  |---9v----------------------------|---7v-------7h9v---------5v------|
  |---------------------------------|---------------------------------|
  |---------------------------------|---------------------------------|
  
		  |---------------------------------|
		  |---------------------------------|
		  |---------------------------------|
		  |---5h7v--------5b----------------|
		  |------------------------7v-------|
		  |---------------------------------|

		1st Ending
		  |---------------------------------|
		  |---------------------------------|
		  |---------------------------------|
		  |---------------------------------|
		  |-------7--------------------5----|
		  |----------------0----5h7---------|

		2nd Ending
		  |---------14--14-----12--12--12---|
		  |---------14--14-----12--12--12---|
		  |---------14--14-----12--12--12---|
		  |---------------------------------|
		  |---------------------------------|
		  |---------------------------------|

_FILL 3________________________________________________________________________

		    Gtr. 3
		       hold bend..... 
		  |----------------0----------------|
		  |---------------------------------|
		  |-------2f----------2f--(2)p0-----|
		  |------------------------------2--|
		  |---------------------------------|
		  |---------------------------------|

_______________________________________________________________________________








Important: The song above is NOT stored on the Chordie server. The original song is hosted at tabfu.thudspace.net. Chordie works as a search engine and provides on-the-fly formatting. Chordie does not index songs against artists/composers will. To remove this song please click here.

This song is displayed as text-only. Transposing and tuning is only available for chordpro-songs.

Login - add to songbook

Rating click stars to rate

Layout
Accuracy

SHARE PAGE  

You need to log in to post comments