"yes"; ?> ode to groon by Unknown - guitar chords, guitar tabs and lyrics - chordie

ode to groon

Unknown





Date: Fri, 10 Jan 1997 20:25:07 -0600 (CST)

Subject: "Ode to Groon" by AL'S CO-HOLICS

"Ode to Groon" by AL'S CO-HOLICS
lyrics and music (Lasee)

This is the debut track of the debut album from Al's Co-Holics, which is 
titled "Telling it Like it is".  This is a very basic song that doesn't 
require much talent to play, but sometimes the simplest of songs are the 
better ones.  I don't have my axe with me, so if anyone finds anything 
that looks incorrect, feel free to send in the correction(s).  Enjoy!

"Ode to Groon"

Riff 1 Riff 2
------------------------------------------------------------
------------------------------------------------------------
------------------------------------------------------------
--5---5---4---4-----------------10--10--10--9---9-----------
--5---5---4---4-----------------10--10--10--9---9-----------
--3---3---2---2-----------------8---8---8---7---7-----------     
          


Play *Riff 1* 4x 

Groon is the man
He's from Japan
Got a dark tan
Eat *&%**&(&()&

You may dislike Groon  (Riff 2)
What can be done       (Riff 1)
He's coming real soon  (Riff 2)
Ruining your fun       (Riff 1)

*Riff 1* 4x

All chicks beware
He's a real scare
Not quite aware
No facial hair

Groon majors in art (Riff 2)
What a mistake (Riff 1)
Breaks every girl's heart (Riff 2)
Groon takes the cake     (Riff 1)

Outro:
--------------------------------
--------------------------------
--------------------------------
--------------------------------
-----4///9---------5///10--------
-0---2///7-----0---3///8--------- Repeat a few times








































variations - click chord images
Transpose chords:
Tuning:
Cool service:
View: Size:
A  A  A
Rating:
Layout:
  • Currently 0/5 Stars.
  • 1
  • 2
  • 3
  • 4
  • 5
 
Accuracy:
  • Currently 1.4/5 Stars.
  • 1
  • 2
  • 3
  • 4
  • 5
 
click stars to rate
Chordie recommends:
Get acoustic guitar lessons and electric guitar lessons at JamPlay.com
Songbook:
Login to add this song to your songbook
Support the artist
Preview/buy this song
MSN Music
Why this non-profit ad?

 
login to add comments/video/corrections