Chordie logo

california girls  


	-7-------7------7|-9-------9---9----

	----79--7---79---|----79--7--79-----

	-----------------|------------------

	-----------------|------------------

	-----------------|------------------

	-----------------|------------------







        bass:





         v   v   v   v     v   v   v   v


                                                                                                                                                                                                                                                                                        



	-----------------|----6-------------

	-----------------|--------86--42----

	-----------------|----------------4-

	-----------------|------------------


Important: The song above is NOT stored on the Chordie server. The original song is hosted at tabfu.thudspace.net. Chordie works as a search engine and provides on-the-fly formatting. Chordie does not index songs against artists/composers will. To remove this song please click here.

This song is displayed as text-only. Transposing and tuning is only available for chordpro-songs.

Login - add to songbook

Rating click stars to rate

Layout
Accuracy

SHARE PAGE  



You need to log in to post comments