Chordie logo


happiness is   Beatles










Date: Fri, 21 Jun 1996 22:56:45 -0400
From: Laurence Watson 
Subject: HAPPINESS IS A WARM GUN


FROM: lrw@virginia.edu (Stuart Watson)



			This is the song Happiness Is a Warm Gun,
			by the Beatles.  The song appeared on the
			White album, released in 1968.  Here it is:

               
                (Am7)                (Am6)                (Em9)
||--3-----------------|--2-----------------|--2-----------------|
||--------------1-----|--------------1-----|--------------0-----|
||--------2-----------|--------2-----------|--------0-----------|
||-----2-----------2--|-----2-----------2--|-----2------------2-|
||--0--------0--------|--0--------0--------|--2--------2--------|
||--------------------|--------------------|--------------------|

                (Em)               2x (Dm)       (slower)  (Am)
|--0-----------------||------------1-------|--------------------|
|--------------0-----||----------3---3-----|-------------0------|
|--------0-----------||----2---2-------2---|--------2--------2--|
|-----2-----------2--||--0---0-------------|--------------------|
|--2--------2--------||--------------------|---0----------------|
|--------------------||--------------------|--------------------|
			(this goes on during, "She's well acquainted...)


                (Am)                LEADS:
|------------0-------|                     |----------|----8----|
|----------1----1----|                     |----12----|----10---|
|-------2----------2-|                     |----10----|----9----|
|----2---------------|                     |----------|---------|
|-0------------------|                     |----------|---------|
|--------------------|                     |----------|---------|




LEADS:    

  (bend-bend-release)    (bend.  bend-release)    (bend-bend-release)
|----------------------|----------------------|-------------------------|
|----------------------|----------------------|-------------------------|
|----------------------|----------------------|-------------------------|
|----------------------|----------------------|-------------------------|
|--7-b(10)---3----3----|--5-b(7)--5-b(7)--3---|--7-b(9)--3----3--5b(7)--|
|--------------5-------|--------------------5-|------------5------------|


                 (bend)   (bend-release)
|-----------------------------------------|
|-----------------------------------------|
|-----------------------------------------|
|-----------------------------------------|
|---7--3-----3---5-b(7)---5-b(7)----3-----|
|---------5----------------------------5--|        



	It would be best to not follow the leads note for note,
	because I'm probably wrong about the order in which they're
	played.  Make your own revisions.  Also, listen to the song
	to get the order of everything correct, and to know when to 
        repeat things.  I'm sorry that I don't know the ending, 
	but if somebody would send it to me, I would be very grateful.

						- Stuart Watson








Important: The song above is NOT stored on the Chordie server. The original song is hosted at tabfu.thudspace.net. Chordie works as a search engine and provides on-the-fly formatting. Chordie does not index songs against artists/composers will. To remove this song please click here.

This song is displayed as text-only. Transposing and tuning is only available for chordpro-songs.

Login - add to songbook

Rating click stars to rate

Layout
Accuracy

SHARE PAGE  




You need to log in to post comments