eToCache5 = ""; ?> ive got a feeling by Beatles - guitar chords, guitar tabs and lyrics - chordie

ive got a feeling

Beatles



|--------5------------5-----|--------5------------5----
|--------2----2---3---3-----|--------2----2---3---3----
|-----2-----2_h_4---4---2---|-----2-----2_h_4---4---2--
|---------------------------|--2-----------------------
|---0-----------------------|--0-----------------------
|---0-----------------------|--------------------------
|-------------------------------|-----------------------------------
|--8-------8------8------8------|-----------------------------------
|--9-9-9---9-9-9--9-9-9--9-9-9--|-----------------------------------
|--7-7-7---7-7-7--7-7-7--7-7-7--|-----------------------------------
|-------------------------------|---------0-2-3-4-5-----------------
|-------------------------------|-0-2-3-4---------------------------
|----12-\--9---------------|----12-\--9---------------
|----14--\-10--7- 8-7------|----14--\-10--7- 8-7------
|--------------7-h7-7------|--------------7-h7-7------
|--------------7- 9-7------|--------------7- 9-7------
|--------------------------|--------------------------
|--------------------------|--------------------------
|------------5------5----|---------5--------------5--------5------5-
|------------5------5----|---------5--------------5--------5------5-
|------------6------6----|---------6--------------6--------6------6-
|------------7------7----|---------7--------------7--------7------7-
|------------------------|------------------------------------------
|------------------------|------------------------------------------
|-5--5-------------|-5--5--------5------5-|----5-------------------------
|-5--5--7--8-------|-5--5--7--8--5------5-|----5--------------7-------5--
|-6--6--7--7-------|----6--7--7--6------6-|----6--------------7-------6--
|-7--7--7--9-------|----7--7--9--7------7-|----7--------------7-------7--
|------------------|----------------------|------------------------------
|------------------|----------------------|------------------------------
|-----------------------5------|-5--5--------------|-5--5--------------
|------------5----------5------|-5--5--7--8--------|-5--5--7--8--7-----
|------------6--7---7---6------|-6--6--7--7--------|-6--6--7--7--7-----
|------------7--7---7---7------|-7--7--7--9--------|-7--7--7--9--7-----
|------------------------------|-------------------|-------------------
|------------------------------|-------------------|-------------------
|------------------------------|-----------------------------------
|--8------8------8------8------|-----------------------------------
|--9-9-9--9-9-9--9-9-9--9-9-9--|-----------------------------------
|--7-7-7--7-7-7--7-7-7--7-7-7--|-----------------------------------
|------------------------------|---------0-2-3-4-5-----------------
|------------------------------|-0-2-3-4---------------------------
|----12-\--9---------------|----12-\--9-----------------
|----14--\-10--7- 8-7------|----14--\-10----7- 8-7------
|--------------7-h7-7------|----------------7-h7-7------
|--------------7- 9-7------|----------------7- 9-7------
|--------------------------|----------------------------
|--------------------------|----------------------------
|-10b12----10b12------10b11~11~11~11r10-7-|-7---7----7--------7------7------7-
|-----------------------------------------|-8b9b10---8b10r8---8b10r8-8b10r8-8-
|-----------------------------------------|-----------------------------------
|-----------------------------------------|-----------------------------------
|-----------------------------------------|-----------------------------------
|-----------------------------------------|-----------------------------------
|----8b10~10----------------8b10~10~10~10r8--5--------------
|-----------------------------------------------------------
|-----------------------------------------------------------
|-----------------------------------------------------------
|-----------------------------------------------------------
|-----------------------------------------------------------
|-----------------|------------------------||
|-----------------|-----------------------x||
|-7b9~9b10b11r9r8-|-(7)b8~8~8~8~8~-5b7r5---||
|-----------------|----------------------7x||
|-----------------|------------------------||
|-----------------|------------------------||
||---5--5-----------------|-5--5---5----------------
||---5--5--7- 8--7--------|-5--5---5-0-7- 8--7---7--
||---6--6--7-h7--7--------|-6--6---6---7-h7--7---7--
||---7--7--7- 9--7--------|-7--7---7---7- 9--7---7--
||------------------------|-------------------------
||------------------------|-------------------------
|---5--5----------------------|---5--5-------------------------
|---5--5--7- 8-----7-----7----|---5--5--7- 8-----7-----7-------
|---6--6--7-h7-----7-----7----|---6--6--7-h7-----7-----7-------
|---7--7--7- 9-----7-----7----|---7--7--7- 9-----7-----7-------
|-----------------------------|--------------------------------
|-----------------------------|--------------------------------

 Edim/A      D#dim/A Ddim/A
 A       D/A    A        D/A           A7 
|--------------|---------------------||-------------------------------
|--------7--7--|---5--5--7- 8-----7-x||----8-8-8--8-8-8--7-7-7--6-6-6-
|--------7--7--|---6--6--7-h7-----7--||--9---9-9--9-9-9--8-8-8--7-7-7-
|--------7--7--|---7--7--7- 9-----7-x||-----(8)---------(7)----(6)----
|--------------|---------------------||-------------------------------
|--------------|---------------------||-------------------------------
 Oh yeah,    Oh    yeah.
 
 
 C#dim/A        Cdim/A Bdim/A
      A        D/A         A       D/A
|-------------------------------|-----5----------5---|----5-----------5----||
|-5-5-5--5-5-5--6-6-6--7-7-7--8-|--------------------|---------------------||
|-6-6-6--6-6-6--7-7-7--8-8-8--9-|---------2---2----2-|--2-----2---2--------||
|(5)-----------(6)----(7)-------|---2---2-h-4--4-----|------2---4---4----2-||
|-------------------------------|-0------------------|-0-------------------||
|-------------------------------|--------------------|---------------------||
 
                                                     ______
   w/ Main riff 4x                                  |1.
    A        D/A            A        D/A              A        D/A
||-------12-12b14~r12-----|---9------------------12-|------------------------
||x--12b14----------------|--------------10-12b14---|-----------7---8----7---
||------------------------|-------------------------|-----------7 h 7----7---
||x--1.-I-got-a-feeling-a-|-feeling-i-cant-hide-o-no|-----------7---9----7---
||---2.-I-got-a-feeling-a-|-feeling-deep-inside-o-ye|--------oh---yeah-------
||------------------------|-------------------------|------------------------
 Ev'rybody had a good year Ev'rybody had a hard time Ev'rybody had a wet dream
 Ev'rybody had a good year,Ev'ry let their hair down
 
                              _____
                             |2.
  A         D/A                     A           D/A
|----------------------------||-----5--------------------------
|-----------7---8--7---7----x||-----5----5------7---8--7----7--
|-----------7-h-7--7---7-----||-----6-----------7-h-7--7----7--
|-----------7---9--7---7----x||-----7-----------7---9--7----7--
|----------------------------||--------------------Oh-no-no-no-
|----------------------------||--------------------------------
 Everybody saw the sun shine   Ev'rybody pulled their socks up
 
 Edim/A D#dim/A Ddim/A
  A         D/A                     A7 
|--------5----------------5-------|----------------------------
|-5--5---5--7- -8---------7-------|------8-----7-----7---------
|-6--6---6--7-h-7---------7-------|------9-9-9-8-8-8-8---------
|-7--7---7--7- -9---------7-------|----------------------------
|-----------------------------yeh-|----------------------------
|---------------------------------|----------------------------
 Everybody put their foot down oh   yeah
 
 C#dim/A    Ddim/A D#dim/AEdim/A D#dim/A Ddim/A
  
|---------------------------|-----5-5-5-7-7-7-8-8-8--
|-5-5--5-5-5-7-7-7-6-6-6----|-5---5-5-5-6-6-6-7-7-7--
|-6-6--6-6-6-8-8-8-7-7-7----|-6---6-6-6-7-7-7-8-8-8--
|---------------------------|------------------------
|---Ive-got-a-feeling-------|------------------------
|---------------------------|------------------------
 
 C#dim/A  Ddim/A D#dim/AEdim/A D#dim/A Ddim/A
  
|-9-9-9-9-9-9-8-8-8-7-7-7-|-5---5-5-5-7-7-7-8-8-8-
|-8-8-8-8-8-8-7-7-7-6-6-6-|-5---5-5-5-6-6-6-7-7-7-
|-9-9-9-9-9-9-8-8-8-7-7-7-|-6---6-6-6-7-7-7-8-8-8-
|-------------------------|-----------------------
|-------------------------|---------------Ive-got-
|-------------------------|----------------a-feel-
          Oh yeah
 
 C#dim/A  Ddim/A D#dim/A
   A
|-9----9-9-9-8-8-8-7-7-7--|----------------------------||
|-8----8-8-8-7-7-7-6-6-6--|-5--------------------------||
|-9----9-9-9-8-8-8-7-7-7--|-6--------------------------||
|-------------------------|-7--------------------------||
|-ing--------yeah---------|----------------------------||
|-------------------------|----------------------------||
 
Notes:
 
/\/\/\/\/\ Vibrato
7b8~8      Pluck,Bend up a semitone from 7th fret hold and strike again
 gbost
(8)        Implied note 
7b9r7      Pluck, bend 7th fret up two semitones, pluck, release and pluck
 
A7  x02223      | This is
G   320003     x| supposed        There are a couple of really
E   032200      | to be           nifty bass runs in this song
D   x00232     x| a repeat        which I might add if there
G7  320001      | sign            is any interest?
D7  x00212
 
Guitar 1 wierd shape info
 
                    The tab here is shows the timing that should
                    be used. They are triplets.
 
 Edim/A    D#dim/A Ddim/AC#dim/A Cdim/A Bdim/A
                    
Bdim/A    x0343x  |-------------------------|--------------------------|
Cdim/A    x0454x  |-8-8-8-8-8-8--7-7-7-6-6-6|-5-5-5-5-5-5--4-4-4-3-3-3-|
C#dim/A   x0565x  |-9-9-9-9-9-9--8-8-8-7-7-7|-6-6-6-6-6-6--5-5-5-4-4-4-|
Ddim/A    x0676x  |-8-8-8-8-8-8--7-7-7-6-6-6|-5-5-5-5-5-5--4-4-4-3-3-3-|
D#dim/A   x0787x  |-------------------------|--------------------------|
Edim/A    x0898x  |---I got a feeling-------|--------------------------|
                                \ these are overdubbed voices
 
 Edim/A    D#dim/A Ddim/AC#dim/A    Ddim/A D#dim/A
These D shapes      
are moved up &    |-------------------------|---------------------------
down. Usually     |-8-8-8-8-8-8--7-7-7-6-6-6|-5-5-5-5-5-5--6-6-6-7-7-7--
they correspond   |-9-9-9-9-9-9--8-8-8-7-7-7|-6-6-6-6-6-6--7-7-7-8-8-8--
to what Git 2     |-8-8-8-8-8-8--7-7-7-6-6-6|-5-5-5-5-5-5--6-6-6-7-7-7--
is playing but    |-------------------------|---------------------------
not always        |-------------------------|---------------------------
                   these two bars are repeated three times



Back to index / b / beatl


variations - click chord images
Transpose chords:
Tuning:
Cool service:
View: Size:
A  A  A
Rating:
Layout:
  • Currently 0/5 Stars.
  • 1
  • 2
  • 3
  • 4
  • 5
 
Accuracy:
  • Currently 3.2/5 Stars.
  • 1
  • 2
  • 3
  • 4
  • 5
 
click stars to rate
Chordie recommends:
Get acoustic guitar lessons and electric guitar lessons at JamPlay.com
Songbook:
Login to add this song to your songbook
Support the artist
Preview/buy this song
MSN Music
Why this non-profit ad?

 
login to add comments/video/corrections