""; ?> higher by Jason Becker - guitar chords, guitar tabs and lyrics - chordie

higher

Jason Becker



Date: Mon, 23 Mar 1998 12:37:31 -0700 (MST)
From: Sean Kasun 
Subject: b/becker_jason/higher.tab

(there are no lyrics to this song)


Higher - Jason Becker
Tab by Sean Kasun (seank@u.arizona.edu)

This is off his newest album, Perspective.  It's a great album, and
this song has no guitar in it whatsoever.  It's all acapello, but I figured
since we all play guitar, I could tab it out anyways :)

According to the liner notes, the first half was written on the guitar,
however I personally think the second half sounds more guitar oriented..
so I have only tabbed out the second half.

Play this VERY slowly.

First the guy starts arpegiating the followng.  He goes through several
chords, but I haven't taken the time to figure them all out.

|-------------------------------------------------------------------|
|-------------------------------------------------------------------|
|-------9-----------9----------9-----------9------------------------|
|---6-9---9-6---6-9---9----6-9---9-6---6-9---9----------------------|
|-7-----------7----------7-----------7------------------------------|
|-------------------------------------------------------------------|

After doing that a second time, the main vocal starts in:

|-------------------------------------------------------------------|
|-------------------------------------------------------------------|
|-(4)/13~------14--16-----------13----13-14~--------13-14P13--------|
|----------------------16-----------16------------------------------|
|-------------------------------------------------------------------|
|-------------------------------------------------------------------|

|-------------------------------------------------------------------|
|-------------------------------------------------------------------|
|-13--14--16-17~-------16H17-16-14-16-----------16-14----14~--------|
|---------------------------------------17------------17------------|
|------------------------------------------17-----------------------|
|-------------------------------------------------------------------|

|-------------------------------------------------------------------|
|-------------------------------------------------------------------|
|-14-----------------------------------------11---14-13-14-11-------|
|----17-16/17-------18------(19)------------------------------------|
|-----------------------------------------12------------------------|
|-------------------------------------------------------------------|

|-------------------------------------------------------------------|
|---------------------------14H17---15-14H15--14--------------------|
|-14-13-14--14/15--------15-----------------------16-14-------------|
|------------------16-----------------------------------17-16-15----|
|-------------------------------------------------------------------|
|-------------------------------------------------------------------|

|-------------------------------------------------------------------|
|------------------------------------------------------20-\-19------|
|---------------------------------------15---15/18------------------|
|-13--15/16---13-16------------13-14-16-----------------------------|
|-------------------14---14-16--------------------------------------|
|-------------------------------------------------------------------|

|-------------------------------------------------------------------|
|-17----------------------------------------------------------------|
|----19----18-16-14-------------------------------------------------|
|---------------------17-16---14-------------------------11----14---|
|--------------------------------17--16-14----------13--------------|
|-------------------------------------------15-14-------------------|

|-------------------------------------------------------------------|
|-------------------------------------------14-15-------15-17-14----|
|-----11----14-13-14P13----13-14-16------16-------------------------|
|-------------------------------------------------------------------|
|-12----------------------------------------------------------------|
|-------------------------------------------------------------------|

|-----------------14------------------------------------------------|
|-14------------------14--------------------------------------------|
|----17-16-15-14----------14-------18-14----------------------------|
|-----------------------------16---------16-----16---17----18-------|
|--------------------------------------------16---------------------|
|-------------------------------------------------------------------|

|-------------------------------------------------------------------|
|-------------------------------------------------------------------|
|-----------------------------------------------------------14------|
|-------15--16-18-16--------15----15-16----15-16P15---16-18---------|
|--------------------18--------18-----------------------------------|
|-13-16-------------------------------------------------------------|

|-------------------------------------------------------------------|
|-------------------------------------------------------------------|
|-14-13----13------------13-----------------------------------------|
|-------16------14----------16-14H16---13-------16-14-13H14-15-16---|
|-------------------14---------------------14-----------------------|
|-------------------------------------------------------------------|


Hope you enjoyed this.  I haven't seen any other Becker tabs on OLGA,
but if you know one of his songs, please take the time to write it
out for the rest of us.  Thank you.  :)

-Sean Kasun








































variations - click chord images
Transpose chords:
Tuning:
Cool service:
View: Size:
A  A  A
Rating:
Layout:
  • Currently 0/5 Stars.
  • 1
  • 2
  • 3
  • 4
  • 5
 
Accuracy:
  • Currently 3.3/5 Stars.
  • 1
  • 2
  • 3
  • 4
  • 5
 
click stars to rate
Chordie recommends:
Learn to play this song & others via video guitar lessons at JamPlay.com
Songbook:
Login to add this song to your songbook
Support the artist
Preview/buy this song
MSN Music
Why this non-profit ad?

 
login to add comments/video/corrections