"yes"; ?> hit me with your best shot by Pat Benatar - guitar chords, guitar tabs and lyrics - chordie

hit me with your best shot

Pat Benatar



Date: Sat, 27 Dec 1997 16:54:13 -0800
From: Tom Penfield 
Subject: TAB:  r/benatar_pat/Hit_Me_With_Your_Best_Shot.tab

HIT ME WITH YOUR BEST SHOT - Pat Benatar
(E. Schwartz)
Produced by Keith Olsen
Published by ATV Music. Pub. Of Canada Ltd. Admin. By EMI
Blackwood Music Inc. Under License from ATV Music Corp. (BMI)
p. 1980 Chrysalis Records Inc.
(Transcribed by Tom Penfield and Wayne Riker)

Intro: (which is the chords for the chorus)
E   A   C#m   B,    E  A  C#m   B  A    B

   E                                         C#m
1.  Well you're a real tough cookie with a long history
         B                       
Of breaking little hearts, like the one in me.
  E   C#m
That's O.K., lets see how you do it
                  B
Put up your dukes, lets get down to it.

Chorus:
E                 A        C#m     B
Hit Me With Your Best Shot
E          A              C#m    B   A    B
Why Don't You Hit Me With Your Best Shot
E                   A          C#m   B
Hit Me With Your Best Shot.
E               A              C#m    B   A   B
Fire Away!

2.  You come on with a "come on", you don't fight fair
That's O.K., see if I care.
Knock me down, it's all in vain,
I'll get right back on my feet again.

Hit Me With Your Best Shot.
Why Don't You Hit Me With Your Best Shot.
Hit Me With Your Best Shot.
Fire Away!

Guitar solo: (you'll need sustain)

-12h14p12-11h12p11-9h11p9-7---------------------
------------------------------------------------
------------------------------999s8-888s6-666-4
------------------------------------------------
------------------------------------------------
------------------------------------------------

-------------------------------------------------------------
-0tr2--0tr4--0tr5-0tr7--5h7(repeat for measure)--7-6-4-----------
---------------------------------------------------------6b8-6--4
-----------------------------------------------------------------
-----------------------------------------------------------------
-----------------------------------------------------------------

-14---14--14---14--14--14--------------------------------------
----12--12---12---12--12--12------------------------------------
----------------------------------11b13-----9---9----9----9-----
------------------------------------------s9--s9--s9--s11-----
---------------------------------------------------------------
----------------------------------------------------------------

------------------12---------------------
------------------15----0------0-2-4-5--
----(4)b6r4------------2b4--------------
------------------------------------------
-----------------------------------------
-0---------------------------------------

Over the start of the third verse play the E as a C chord 
barred on the 4th fret, and pick notes 
----------------------------------------------------------
---5-----5-4------2-------------------------------------
--------------4--4--4--4--------6--4--------4----------
-----6---------4-----2-----4--6-----4-----4--4--------
-------7------------------4------------2--2-----2--4--6
----------------------------------------------------------

3. Well you're a real tough cookie with a long history
Of breaking little hearts, like the one in me
Before I put another notch in my lipstick case
You better make sure you put me in my place
repeat chorus (2x)








































variations - click chord images
Transpose chords:
Tuning:
Cool service:
View: Size:
A  A  A
Rating:
Layout:
  • Currently 0/5 Stars.
  • 1
  • 2
  • 3
  • 4
  • 5
 
Accuracy:
  • Currently 3.1/5 Stars.
  • 1
  • 2
  • 3
  • 4
  • 5
 
click stars to rate
Chordie recommends:
Learn how to play guitar at JamPlay.com
Songbook:
Login to add this song to your songbook
Support the artist
Preview/buy this song
MSN Music
Why this non-profit ad?

 
login to add comments/video/corrections