modern man

Black Flag



E---0--2--3--2--5------------------------------------------
A------------------2--3--2--7--8--7--8--7--8--7--8--7------
D----------------------------------------------------------
G----------------------------------------------------------
B----------------------------------------------------------
E----------------------------------------------------------
E----------------------16-15-13-16-15-13-16-16-15-15-13-15-16-15-13---------
B------------13--13-14----------------------------------------------16-14-13
G--13--13-13----------------------------------------------------------------
D---------------------------------------------------------------------------
A---------------------------------------------------------------------------
E---------------------------------------------------------------------------
E---------------------------------------------------------------------------
B-------------------15-13--------------13--------------13----------------------
G--15---13-13-13-15-------15-13-15-13-----15-13-15-13-----15-13-12-13----------
D---------------------------------------------------------------------------
A---------------------------------------------------------------------------
E----------------------------------------------------------------------------
E----------------------------------------------------------------------
B----------------------------------------------------------------------
G--13--13-13-17--17-15-13-17-15-13-17-15-13-17-15-13-17-15-13-17-15-13-
D----------------------------------------------------------------------
A----------------------------------------------------------------------
E----------------------------------------------------------------------
E--------------16-15-13--16-15-13--16-15-13-15-16-15-13--131315151616181820(b)
B----------------------------------------------------------------------------
G-17-15-13-17----------------------------------------------------------------
D----------------------------------------------------------------------------
A----------------------------------------------------------------------------
E----------------------------------------------------------------------------
F ----  G ---  Gsharp ---  Dflat ---  Eflat ---  F (chorus only) ---
  ----    ---         ---  ---     ---  ---
  -10-    ---         ---  -6-     -8-  ---
  -10-    -5-         -6-  -6-     -8-  -3-
  --8-    -5-         -6-  -4-     -6-  -3-
  ----    -3-         -4-  ---     ---  -1-

 1/2
Subject: BLACK FLAG TAB 

@SONG: MODERN MAN

intro:
E---0--2--3--2--5--------------------------------------+
A------------------2--3--2--7--8--7--8--7--8----------+
D-------------------------------------------------------+
G-------------------------------------------------------+
B-------------------------------------------------------+
E-------------------------------------------------------+
(X?)

ALL CHORDS ARE 5TH'S.

 F#GF#G
  He's too straight and you can wait
 BC#BC#
        Modern man  
 F#GF#G
        I've only got time for a few, and not you
 BC#BC#
        Modern man  
 F#GF#G
        I'll push you hard, I can't know you
 BC#BC#
        Modern man  
 F#GF#
        'Cause then we'd have to be friends, and that just 
 G
won't do
 BC#BC#
        Modern man, Modern man

 BASSLINE:
 
Living tommorow is everyones sorry
Modern mans daydreams have turned into nighmears

 F#GFG
It's for you that I sing to share what I feel
 BC#BC#
Modern Man  
 F#GF#G
The things I need in this world
 BC#BC#
Modern Man  
 F#GF#G
If you don't like it, you can leave me alone
 BC#BC#
Modern man, Modern man
 F#en I talk to yGGF#
'Cause whou I want to hang up the phone
 BC#BC#
Modern man, Modern man

 BASSLINE:
 
Living tommorow is everyones sorry
Modern mans daydreams have turned into nighmears

 F#GF#G
  He's too straight and you can wait
 BC#BC#
        Modern man  
 F#GF#G
        I've only got time for a few, and not you
 BC#BC#
        Modern man  
 F#GF#G
        I'll push you hard, I can't know you
 BC#BC#
        Modern man  
 F#GF#
        'Cause then we'd have to be friends, and that just 
 G
won't do
 BC#BC#
        Modern man, Modern man

-andrew.


Back to index / b / black_fl


B C# F F# G
variations - click chord images
Transpose chords:
Tuning:
Cool service:
View: Size:
A  A  A
Rating:
Layout:
  • Currently 2.9/5 Stars.
  • 1
  • 2
  • 3
  • 4
  • 5
 
Accuracy:
  • Currently 3/5 Stars.
  • 1
  • 2
  • 3
  • 4
  • 5
 
click stars to rate
Chordie recommends:
Learn to play songs at Jamplay.com with video guitar lessons
Songbook:
Login to add this song to your songbook
Support the artist
Preview/buy this song
MSN Music
Why this non-profit ad?

 
login to add comments/video/corrections