Guitar Tabs, Chords and Lyrics


behind the wall of sleep   Black Sabbath









I think it's reasonably acurate I just typed this one up a friend of mine
worked it out a couple of years ago for me.
at least writing up this is a start to repaying all the tab's I got of the net.

enjoy

Stu.

Wasp/Behind the wall of sleep
by Black Sabbath
off the cd Black Sabbath

riff:1
Eb|------------------------------------------------------------------
Bb|------------------------------------------------------------------
Gb|------4----4--4--4--4------------------2----2--2--2--2------------
Db|------4----4--4--4--4------------------2----2--2--2--2------------
Ab|------2----2--2--2--2------------------0----0--0--0--0------------                          

Eb|------------------------------------------------------------------

riff:2
Eb|------------------------------------------------------------------
Bb|------------4--4--4p2---------------------------------------------
Gb|--4----4----------------4--2-----2--4----4------2-4---------------
Db|--4----4-----------------------4----4----4--3\4-----2b-0-2-0---0--
Ab|--2----2----------------------------2----2-------------------2----
Eb|------------------------------------------------------------------

riff:3
Eb|------------------------------------------------------------------
Bb|------------------------------------------------------------------
Gb|------0h2--0--0h2---------0h2--0----------------------------------
Db|----2-------------------2---------0h2-----------------------------
Ab|--0-------------------0-------------------------------------------                   

Eb|------------------------------------------------------------------

riff:4
Eb|------------------------------------------------------------------
Bb|------------------------------------------------------------------
Gb|-----------------------2------------------------------------------
Db|--0--0-------0h1p0-----2------------------------------------------
Ab|--------0h2---------2--0------------------------------------------                   

Eb|------------------------------------------------------------------
riff:5
Eb|------------------------------------------------------------------
Bb|------------------------------12----------------------------------
Gb|--4-------------------4-------14B---------------------------------
Db|--4------12~~~~-------4-------------------------------------------
Ab|--0h2-----------------0h2-----------------------------------------                   

Eb|------------------------------------------------------------------



played in this order

riff:1 x4
riff:2 x2
riff:1 x4 extra B at end of the 4 time let the b ring out
riff:3 x2
riff:4 x1
riff:3 x2
riff:4 x1
riff:5 x8
solo: anybody is welcome to fill in the solo I don't know it
riff:1 x4
riff:3 x2
riff:4 x2

then nib starts on my cd








Important: The song above is NOT stored on the Chordie server. The original song is hosted at tabfu.thudspace.net. Chordie works as a search engine and provides on-the-fly formatting. Chordie does not index songs against artists'/composers' will. To remove this song please click here.

This song is displayed as text-only. Transposing and tuning is only available for chordpro-songs.

Login - add to songbook

Rating click stars to rate

Layout
Accuracy

SHARE PAGE  




You need to log in to post comments