Guitar Tabs, Chords and Lyrics


dammit   Blink 182









Date: Mon, 13 Oct 1997 21:37:39 -0700
From: Andrew Hood 
Subject: `dammit' by 'blink 182' Revised please update

Song Title: Dammit
Band: Blink 182
Album: Dude Ranch
Last Revised: 10-13-97 21:37 PM
Tabbed By: Andrew Hood 
	   -=gish@beer.com=-
Part G by NrvanaBean 



Main Riff:  

 |------------------------------------------------------------------------
 |------------------------------------------------------------------------
 |------------------------------------------------------------------------
 |------------------------------------------------------------------------
 |---------5-5--7--------5-5--7--------5-5-7--8-8-7-7--5-----------
 |---8-8------------3-3-----------5-5-----------------------------------	

 Chords:  Same throughout the whole song
      C5     G5    A5      F5
|------------------------------------------------------------------------
|------------------------------------------------------------------------
|---5--------------------------------------------------------------------
|---5-------5-----7------3----------------------------------------------
|---3-------5-----7------3------------------------------------------
|-----------3-----5------1-----------------------------------------------


Guitar1:  Main Riff - 2x
Guitar 2:  Silent

Guitar 1: Main Riff 2x
Guitar 2: C5 G5 A5 F5 2x (2nd time Hold F5 a little into the next phrase)

Guitar 1:

Muted
|------------------------------------------------------------------------
|------------------------------------------------------------------------
|---5--------------------------------------------------------------------
|---5----------5------------7-------------------3--------------------
|---3----------5------------7-------------------3-----------------
|--------------3------------5-------------------1----------------------
It's alright / to tell me / what you think / about me
I won't try / to argue / or hold it / against you

Open
|------------------------------------------------------------------------
|------------------------------------------------------------------------
|---5--------------------------------------------------------------------
|---5----------5------------------7------------------3------------
|---3----------5------------------7------------------3----------
|--------------3------------------5------------------1---------------
I know that / you're leaving / you must have / your reasons
The season / is calling / and your pictures / are falling down

Guitar 1: Main Riff 2x
Guitar 2: C5 G5 A5 F5 2x (2nd time Hold F5 a little into the next phrase)

Muted
|------------------------------------------------------------------------
|------------------------------------------------------------------------
|---5--------------------------------------------------------------------
|---5--------------5-----------7-------------------3--------------------
|---3--------------5-----------7-------------------3-----------------
|------------------3-----------5-------------------1----------------------
The steps that / I retrace / a sad look / on your face
The timing / and structure / did you hear / he fucked her?

Open 
|--------------------------------------------------------------------------
|--------------------------------------------------------------------------
|---5--------------------------------------------------------------------5
|---5----------5---------------7-------------------3---------------------5
|---3----------5---------------7-------------------3---------------------3
|--------------3---------------5-------------------1----------------------

 A day late / a buck short / I'm writing / the report
 I'm losing / and failing / when I move / I'm flailing now

           		G5
And it's happened once again
  	        A5	         
 I'll turn to a friend
  		    F5	         
Someone that understands
           		 C5
Sees through the master plan

        	 G5
But everybody's gone
           		    A5
And I've been here for too long
           	   F5	
To face this on my own
           		      	         
Well I guess this is growing up
 
Guitar 1: Main Riff 2x
Guitar 2: C5 G5 A5 F5 2x (2nd time Hold F5 a little into the next phrase)
Well I guess this is growing up

Muted
|------------------------------------------------------------------------
|------------------------------------------------------------------------
|---5--------------------------------------------------------------------
|---5--------------5-----------7-------------------3--------------------
|---3--------------5-----------7-------------------3-----------------
|------------------3-----------5-------------------1----------------------
And maybe / I'll see you / at a movie / sneak preview
You'll show up / and walk by / on the arm / of that guy

Open
|------------------------------------------------------------------------
|------------------------------------------------------------------------
|---5--------------------------------------------------------------------5
|---5--------------5------------------7-------------------3--------------5
|---3--------------5------------------7-------------------3--------------3
|------------------3-------------------5------------------1--------------
And I'll smile / and you'll wave / we'll pretend / it's okay
The charade / it won't last / when he's gone / I won't come back


G. Chorus
Same as First Chorus
Except Guitar 3 (w/o wah and light dist.)
Rhythm Fig. 4 (Play four times)
E|-15-15-15-15-15-15-15-15-15-15-14-12-14-12-8---
B|----------------------------------------------------------------------
G|-12-12-12-12-12-12-12-12-12-12-11-9--11--9--5---
D|---------------------------------------------------------------------
A|---------------------------------------------------------------------
E|---------------------------------------------------------------------
			  G5
And it's happened once again
  	           A5	         
 I'll turn to a friend
  		     F5	         
Someone that understands
           		 C5
Sees through the master plan

           	 G5
But everybody's gone
               		      A5
And you've been here for too long
           	   F5	
To face this on my own
           		      	         
Well I guess this is growing up
 


Bridge: 2x
|------------------------------------------------------------------------
|---5------------5------5-----------5----5--------------------------
|-----5-0-----5---0-------5-0----5---0-5--5-------------------------
|----------------------------------------------------------------------
|--------------------------------------------------------------------
|-------------------------------------------------------------------------

Guitar 1: Main Riff 4x
Guitar 2: C5 G5 A5 F5 4x 
Well, I guess this is growing up [4x]
           		      C5
Well, I guess this is growing up.
	
---------------------------------------------------------------------------
This song tabbed by Andrew Hood -=gish@beer.com=-
Please send Questions, comments, etc, to me at gish@beer.com
This is my first post...please tell me if you'd like to see more
Thanks









Important: The song above is NOT stored on the Chordie server. The original song is hosted at tabfu.thudspace.net. Chordie works as a search engine and provides on-the-fly formatting. Chordie does not index songs against artists'/composers' will. To remove this song please click here.

This song is displayed as text-only. Transposing and tuning is only available for chordpro-songs.

Login - add to songbook

Rating click stars to rate

Layout
Accuracy

SHARE PAGE  




You need to log in to post comments