Chordie logo


saints   Breeders









Saints

The Breeders

Intro:
	-------------------------
	-------------------------
	-----------11------------
	----8-9-11---------------
	--9----------------------
	-------------------------



Verse:
	B C#   F#
	I like all the different people

	B C#   F#
	I like sticky everywhere

	C#		 F#
	Look around  you bet I'll be there


	blah blah blah


Chorus:
	just arpeggiate the F# and C# barre chords,
	something like this:


	  (summer's ready)
	F#
 	--------9----------------9------------------
 	----11------11-------11------11-------------
 	------11--11--11-------11--11--11-----------
 	--11---------------11-----------------------
 	--------------------------------------------
 	--------------------------------------------


	Summer is ready     when you are
	C#		   F#
 	-------------------------9------------------
 	-------9-------------11-------11------------
 	---10----10--10--------11---11--11----------
 	-----11----11------11-----------------------
 	--9-----------------------------------------
 	--------------------------------------------


Solo:
	variations of:


	-------------------------
	-------------------------
	-----------11------------
	----8-9-11-------9-8-----
	--9-------------------9--
	-------------------------


	-------------------------
	-------------------------
	-----------9-------------
	----8-9-11-------9-8-----
	--9-------------------9--
	-------------------------








Important: The song above is NOT stored on the Chordie server. The original song is hosted at tabfu.thudspace.net. Chordie works as a search engine and provides on-the-fly formatting. Chordie does not index songs against artists/composers will. To remove this song please click here.

This song is displayed as text-only. Transposing and tuning is only available for chordpro-songs.

Login - add to songbook

Rating click stars to rate

Layout
Accuracy

SHARE PAGE  




You need to log in to post comments