saints

Breeders


Date: 25 Oct 95 15:37:49 -0400
Subject: TAB: Saints by the Breeders


Saints by the Breeders 
>From the CD Last Splash
Tabbed by Peter Henderson(Saldek)

Intro.  ( guitar with distortion )
------------------:--------------------------
------------------:--------------------------
------------------:--------------------------
--------------2---:--------------------------
-----1--2--4------:--2--1--------------------
--2---------------:---------2--2--2--2--2\---
                    F#
                    I like all the diff'rent people.

                        C#m                 F#
I like sticky everywhere.  Look around you bet I'll be there.

                                        C#m
Hot metal in the sun. Pony in the air.  Sooey and saints...

F#                                      
at the fair.

-------------------------:----------------------:-------
-------------------------:----------------------:-------
-------------------------:----------------------:-------
---------------------4---:----------------------:-------
------------1--2--4------:--4--2--1--2--1-------:-------
---------2---------------:-----------------2----:--2----


-------------------------:--------::
-------------------------:--------::
-------------------------:--------::
-----------2-------------:--------::
--1--2--4---------2--1---:--------::
-------------------------:--2-----::


Chorus:

Guitar One

F#                              C#5
Sum - mer's read - y. Summer is read - y when you are.

A#5 B5 F#                            C#5
Summer's read - y. Summer is read - y when you are.


Guitar Two

------------------------------:------------------------------
--------------11--------------:------------11----------------
------11----------11--11------:-----11---------11--11--------
--11------11--------------11--:-11-----11--------------11----
------------------------------:------------------------------
------------------------------:------------------------------

------------------------:------------------------------------
-----------9------------:--11-11-11-11-11--------------------
-----9--------9--9------:--11-11-11-11-11--------------------
--9-----9-----------9---:--11-11-11-11-11--------------------
------------------------:------------------------------------
------------------------:------------------------------------

repeat twice

solo (kinda)

-------------------------------------:-----------------------
-------------------------------------:-----------------------
-------------------------------------:-----------------------
--------------4----------------------:-------------2---------
-----1--2--4--------4--2--1--2--1----:----1--2--4-----2--1---
--2--------------------------------2-:-2---------------------

----------------------------------------------------------------
----------------------------------------------------------------
----------------------------------------------------------------
----------------4---------------------------------2-------------
-------1--2--4------4--2--1--2--1--------1--2--4------2--1--2--1
-2--2------------------------------2--2-------------------------


That's really all there is to the song.
It goes like this;

Verse 1, verse 2, chorus, solo, verse 3, chorus, chorus.

I think!

If you can..try to play it with the song..it'll make more sense.
--
| Fidonet:  Peter Henderson 1:229/125
| Internet: Peter.Henderson@pconline.gryn.org





Title:         Saints
Group:        The Breeders
Album:         Last Splash
Wrote  by:     The Breeders
Transcribe by: Bruno Lamoureux
----------------------------------------------------------------------
                                                                      
|------------------------------------------------------------------------
|------------------------------------------------------------------------
|-----------------------6-7-----------6-7------6-7-----6-7-----6-7-------
|---------5-------------6-7-----------6-7------6-7-----6-7-----6-7-------
|---4-5-7-----5-4-------4-5-----------4-5------4-5-----4-5-----4-5-------
|-5---------------5------------------------------------------------------


                                                                      
                                                                      
                                                                      
|------------------------------------------------------------------------
|------------------------------------------------------------------------
|----------------------------------------------------67-------67-99999---
|---------7--------------------------5--------777777-67-77777-67-99999---
|---4-5-7-----7-5-5p4h5p4------4-5-7----5-4---777777-45-77777-45-77777---
|-5----------------------5---5--------------5-555555----55555------------


                                                                      
                                                                      
                                                                      
|--------9----------------9---------------7-------9--9--9--9--9----------
|---10-----10-10-----10-----10-10-----8-----8-8---10-10-10-10-10---------
|-9----9---------9-9----9---------9-7---7-------7-9--9--9--9--9----------
|------------------------------------------------------------------------
|------------------------------------------------------------------------
|------------------------------------------------------------------------


                                                                      
                                                                      
                                                                      
|------------------------------------------------------------------------
|------------------------------------------------------------------------
|---------7--------------------------------------------------------------
|------------------------------------------------------------------------
|---4-5-7----7-5-5p4h5p4-------------------------------------------------
|-5---------------------5------------------------------------------------


--PART.BOUNDARY.902.15175.nyongwa.montreal.qc.ca.782596183.1--









































variations - click chord images
Transpose chords:
Tuning:
Cool service:
View: Size:
A  A  A
Rating:
Layout:
  • Currently 0/5 Stars.
  • 1
  • 2
  • 3
  • 4
  • 5
 
Accuracy:
  • Currently 2.7/5 Stars.
  • 1
  • 2
  • 3
  • 4
  • 5
 
click stars to rate
Chordie recommends:
Check out JamPlay.com for online video guitar lessons
Songbook:
Login to add this song to your songbook
Support the artist
Preview/buy this song
MSN Music
Why this non-profit ad?

 
login to add comments/video/corrections