Date: Sat, 3 Aug 1996 12:37:04 -0400
Subject: "Tongue" By Butthole Surfers



This song is off the INDEPENDENT WORM SALOON albulm. Its my second favorite
off the CD, the first is "You Don't Know Me", which i'll transcribe next,
HERE IT IS!!!!!!

 
 INTRO (4 X)
e-----------------------------------------------------------------------------
-------------------------------------------
b-----------------------------------------------------------------------------
-------------------------------------------
g-----------------------------------------------------------------------------
-------------------------------------------
d--------------------------------1--------------------------------------------
---------1------0------1------2-------1-
a------------------1----2-------------2------1------0-----------------1-----2-
---------------------------------------
E---1-----2-------------------------------------------------1-----2-----------
-----------------------------------------


     
   G)I can't(C) belive it, (G) Whole cans of (C)evil here, (G)cowboys and
(C)indians are (G)takin' control---------
(G)It really Was (C)A wild one (G)But the Summer HAs (C)come And gone (G)Alot
of nice(C) people, (C)fade away---------(G)yeah......


REPEAT INTRO (4 X)


VERSE, INTRO, ECT.......
I'M not gonna write the rest of the lyrics, if you print this out and you
wanna know the song then you most likely have the CD, its not a real popular
song, but its really catchy, 









































variations - click chord images
Transpose chords:
Tuning:
Cool service:
View: Size:
A  A  A
Rating:
Layout:
  • Currently 0/5 Stars.
  • 1
  • 2
  • 3
  • 4
  • 5
 
Accuracy:
  • Currently 3.4/5 Stars.
  • 1
  • 2
  • 3
  • 4
  • 5
 
click stars to rate
Chordie recommends:
Learn to play this song & others via video guitar lessons at JamPlay.com
Songbook:
Login to add this song to your songbook
Support the artist
Preview/buy this song
MSN Music
Why this non-profit ad?

 
login to add comments/video/corrections