Chordie logo


tv star   Butthole Surfers











Date: Fri, 14 Mar 1997 01:47:05 -0600 (CST)
From: REMSPECHER 

Tabbed By: Terry Remspecher at s1002551@jinx.umsl.edu

Hello, this is a nice and easy little ditty presumeably about Christina 
Applegate.  I love the twang in this song.  It's in standard tuning.

Verses: C Am D F
Chorus: C Am

Chord Shapes:          For the intro, just pick the G,B and e strings on
 C  Am D  F            the 2,3, and 4 beats.  (As if you didn't know).
-0--0--2--1--
-1--1--3--1--
-0--2--2--2--
-2--2--0--3--
-3--0--0--3--
-3-----2--1--

The solo: I don't do this for a living, figure out the timing yourself
---------------------------------------------------------------------------
------5----------------------------5----------------6----8--6---5----------
-5------2b----7--7---5--2---0-5------2b----7----7-7-------------------7--5-
---------------------------------------------------------------------------
---------------------------------------------------------------------------
---------------------------------------------------------------------------

---------------------------------------
--------5------------------------------
0---5------2---------------------------
---------------------------------------
---------------------------------------
---------------------------------------

That's it, have fun.

Any questions, comments, or hate mail can be sent to s1002551@jinx.umsl.edu







Important: The song above is NOT stored on the Chordie server. The original song is hosted at tabfu.thudspace.net. Chordie works as a search engine and provides on-the-fly formatting. Chordie does not index songs against artists/composers will. To remove this song please click here.

This song is displayed as text-only. Transposing and tuning is only available for chordpro-songs.

Login - add to songbook

Rating click stars to rate

Layout
Accuracy

SHARE PAGE  




You need to log in to post comments