far behind

Candlebox



                        "Far Behind" by Candlebox
                        Transcribed by Roger Meech

   Symbols
   -------
|   /   = slide up
|   \   = slide down
|   h   = hammer-on
|   p   = pull-off
|   b   = bend  (ex.  15b17 means bend the 15th fret to sound at the same
|               pitch as the 17th fret)
|   r   = release bend down to specified fret
|   ~   = vibrate the held note
+-------------------------------------------------------------------------


Intro: 

e----------------------|---------------------------|-----2----------|
B------10---10/12---10-|-----12--12-12--10--10-10--|-------3--------|
G--0------0-------0----|-----12--12-12--11--11-11--|----------------|
D----------------------|---------------------------|-0--------0-----|
A----------------------|---------------------------|----------------|
E----------------------|-0-------------------------|----------------|

                                 Verse 1:
e-----------------0----0-----|  |---------------------|
B-------------3----3----3----|  |-----10---10/12---10-|
G-----------0--------------0-|  |-0------0-------0----|
D---------2---------2----2---|  |---------------------|
A-0-2-3----------------------|  |---------------------|
E----------------------------|  |---------------------|
                                     Now maybe


e---------------------------|-----2----------|--------------------------|
B-----12--12-12--10--10-10--|-------3--------|--3-----------------------|
G-----12--12-12--11--11-11--|----------------|--0--------0-------0------|
D---------------------------|-0--------0-----|--2------2-------0--------|
A---------------------------|----------------|--3----3-----2-2--------0-|
E-0-------------------------|----------------|--------------------------|
     I didn't mean treat you bad         But I did it anyway        Now


e----------------------|---------------------------|-----2----------|
B------10---10/12---10-|-----12--12-12--10--10-10--|-------3--------|
G--0------0-------0----|-----12--12-12--11--11-11--|----------2-----|
D----------------------|---------------------------|-0--------0-----|
A----------------------|---------------------------|--------------0-|
E--3-------------------|-0-------------------------|----------------|
  maybe                  Some would say your life was sad


e------------------------------|---------------------|
B-----------3--------3---------|-----10---10/12---10-|
G-----------0------------------|-0------0-------0----|
D-----------2------2-----------|---------------------|
A---0--2--3----3-3-----2h3-2p0-|---------------------|
E------------------------------|-3-------------------|
   But you lived it anyway   So maybe           Your


e-----------------------------------------|-----2----------|
B-----------12----12--12----10----10--10--|-------3--------|
G-----------12----12--12----11----11--11--|----------2-----|
D-----------------------------------------|-0--------0-----|
A-----------------------------------------|----------------|
E-0---------------------------------------|----------------|
  friends they stand around and watch you   crumble


e-----------------------------------|---------------------|
B----------------3---3--------------|-----10---10/12---10-|
G--------------0---0---0------------|-0------0-------0----|
D------------2----------------------|---------------------|
A--0--2---3-----------------2h3p2-0-|---------------------|
E-----------------------------------|-3-------------------|
  As you falter to the ground   Then someday             Your


e---------------------------------------|-----2----------|
B---------12----12--12----10----10--10--|-------3--------|
G---------12----12--12----11----11--11--|----------2-----|
D---------------------------------------|-0--------0-----|
A---------------------------------------|----------------|
E-0-------------------------------------|----------------|
 friends they stand beside as you were flying       Oh you


e--------0---------------------|-------------------------|
B----------3-------------------|-----10---10/12---10-----|
G--------------------0------0--|-0------0-------0--------|
D------2-----------2------0----|-------------------------|
A----3-----------3-3----2------|-------------------------|
E------------------------------|-3-----------------------|
 were flying oh so high   But then some people look at you


e-------------------------------------------|-----2----------|
B-----------12----12--12----10----10--10----|-------3--------|
G-----------12----12--12----11----11--11----|----------2-----|
D-------------------------------------------|-0--------0-----|
A-------------------------------------------|----------------|
E----0--------------------------------------|----------------|
 for what they call their own They watch you suffer


e------------0--------------------------|--------------------------|
B------------3------------3-------------|------10---10/12---10-----|
G------------0----------0--------0------|--0------0-------0--------|
D---------------------2--------0--------|--------------------------|
A--0--2--3---3------3--------2-----0----|--------------------------|
E---------------------------------------|--3-----------------------|
 Yeah they hear you calling home  But then someday we could take our


e-----------------------------------------|-----2----------|
B-----------12----12--12----10----10--10--|-------3--------|
G-----------12----12--12----11----11--11--|----------2-----|
D-----------------------------------------|-0--------0-----|
A-----------------------------------------|----------------|
E--------0--------------------------------|----------------|
 time To brush the leaves aside so you can reach us   Hey but you


e---------0---------------|
B------3--3--3--3---3--3--|
G---0--0--0--0--0---0--0--|
D---2-----------2---0--0--|
A---3-----------3---2--2--|
E-------------------3--3--|
  left me far behind


Chorus:
-------

e|---3----3----3----3--|-----------------------|-----------------|
B|:--3----3----3----3--|-----------------------|-----------------|
G|---4----4----4----4--|--------9--9-----9-----|--7---7---7---7--|
D|---5----5----5----5--|--------9--9-----9-----|--7---7---7---5--|
A|:--5----5----5----5--|--------7--7-----7-----|--5---5---5---5--|
E|---3----3----3----3--|--0-----------0-----0--|-----------------|


  +---------1.------------+ +----------2.---------+
  |                       | |                     |
e-------------------------|-|---------------------|
B------------------------:|-|---------------------|
G--5--5--5--5----4--4--4--|-|--5--5--5--5---------|
D--5--5--5--5----4--4--4--|-|--5--5--5--5---------|
A--3--3--3--3----2--2--2-:|-|--3--3--3--3--2h3p0--|
E-------------------------|-|---------------------|


Now maybe
I didn't mean to treat you oh so bad
But I did it anyway
Now said but maybe
Some would say you're left with what you had
But you couldn't share the pain  No no...


Second time with this FILL:
e--------------------------------------|
B--------------------------------------|
G--9-/-11--12---11--11-7-------7--7--9-|
D--------------------------------------|
A--7-/-9---10---9---9--5--7p5--5--5--7-|
E--------------------------------------|
  "But you couldn't share the pain"



Verse 2:
--------

e----------------------|--------------------------------------| 
B------10---10/12---10-|--------12----12--12-----10---10--10--| 
G--0------0-------0----|--------12----12--12-----11---11--11--|
D----------------------|--------------------------------------| 
A----------------------|--------------------------------------| 
E--3-------------------|-0------------------------------------| 
...No                   Couldn't share the pain they watch you


e------2-----------|---------------------------------|
B--------3---------|-------------3----3--3------3----|
G---------------2--|-----------0------0-------0------|
D--0---------0-----|---------2-----------------------|
A------------------|--0-2-3---------3-------2-----0--|
E------------------|---------------------------------|
  suffer               Mmmhhhmmm                 Now


e----------------------|-----------------------------------| 
B------10---10/12---10-|-----12----12--12-----10---10--10--| 
G--0------0-------0----|-----12----12--12-----11---11--11--|
D----------------------|-----------------------------------| 
A----------------------|-----------------------------------| 
E--3-------------------|-0---------------------------------| 
  maybe                  I could have made my own mistakes


e------2--------|--------------0------------------------|
B--------3------|--------------3-3------------0-------0-|
G------------2--|---------------------------0-------0---|
D--0---------0--|-------------------------2-------0-----|
A---------------|--0--2--3--------------3-------2-------|
E---------------|---------------------------------------|
                  But I live with what I've known   And then

e----------------------|----------------------------------------| 
B------10---10/12---10-|----------12----12--12-----10---10--10--| 
G--0------0-------0----|----------12----12--12-----11---11--11--|
D----------------------|----------------------------------------| 
A----------------------|----------------------------------------| 
E----------------------|-0--------------------------------------| 
  maybe                  We might share in something great  But won't you


e-------2-----------------|-----------------0----------------------|
B---------3---------------|-----------------3-3--------3-------3---|
G-------------2-----2-----|------------------------------0-------0-|
D--0----------0-----------|-------------------------2--------0-----|
A-------------------------|--0-----2----3---------3--------2-------|
E-------------------------|----------------------------------------|
  look at where we've grown  Won't you look at where we've gone   Then


e--------------------------|----------------------------------------| 
B-------10---10/12---10----|----------12----12--12-----10---10--10--| 
G----------0-------0-------|----------12----12--12-----11---11--11--|
D--------------------------|----------------------------------------| 
A--------------------------|----------------------------------------| 
E--3-----------------------|---0------------------------------------| 
 someday comes tomorrow holds  A sense of what I fear for you  


e-------2------------|---------------------0----0-----------|
B---------3----------|-------------------3--3----3---3------|
G-------------2---2--|-----------------0-----0----0---0-----|
D--0----------0---0--|---------------2----------------------|
A--------------------|--0---2----3--------------------------|
E--------------------|--------------------------------------|
  in my mind            As you trip the final line    And that


e----------------------------|----------------------------------------| 
B---------10---10/12---10----|----------12----12--12-----10---10--10--| 
G--0---------0-------0-------|----------12----12--12-----11---11--11--|
D----------------------------|----------------------------------------| 
A----------------------------|----------------------------------------|
E----------------------------|-----0----------------------------------| 
 cold day where you lost control  Shame you left my life so soon  Shoulda


e------2--------2-----2--|-----------------------------|
B---------3-----3--3--3--|-------3------3-----3--------|
G------------2-----2--2--|---0---0--0---0-----0-----0--|
D--0---------0-----0-----|---2------2---2-----2-----0--|
A------------------------|---3------3------3-----2-----|
E------------------------|-----------------------------|
  told me        Hey but you left me far behind


Chorus:  (Without the fill)
_______


Solo:  over Chorus riff twice then over RIFF B
-----


RIFF B:
e----3----3----3----3----3----3----3----3--|
B----3----3----3----3----3----3----3----3--|
G----4----4----4----4----4----4----4----4--|
D----5----5----5----5----5----5----5----5--|
A----5----5----5----5----5----5----5----5--|
E----3----3----3----3----3----3----3----3--|

e---------------------------------------------|
B---------------------------------------------|
G---------9--9-------9----------9--9-------9--|
D---------9--9-------9----------9--9-------9--|
A---------7--7-------7----------7--7-------7--|
E--0------------0-0-------0-----------0-0-----|
End RIFF B



e-------------------------------------------------------------------|
B----------------------------------------------------------15b17----|
G--12/14-14-14\12~ ----12/14-14-14\12~ ----12/14-14-14\12-----------|
D-------------------------------------------------------------------|
A-------------------------------------------------------------------|
E-------------------------------------------------------------------|

e-----------------------12-------12-------12-------12---------------|
B--15b17~ --15b17r15b17----15b17----15b17----15b17----15b17~ -------|
G-------------------------------------------------------------------|
D-------------------------------------------------------------------|
A-------------------------------------------------------------------|
E-------------------------------------------------------------------|

e------------------------------------14-------14-15-15b17~ ---------|
B------------------15b17~ -----15b17----15-17-----------------------|
G--12/14-14-14\12---------------------------------------------------|
D-------------------------------------------------------------------|
A-------------------------------------------------------------------|
E-------------------------------------------------------------------|

e--15b17r15-14-15-14b15~ ---14b15~ ----14b15~ ---14b15r14-p12-------|
B-------------------------------------------------------------15----|
G-------------------------------------------------------------------|
D-------------------------------------------------------------------|
A-------------------------------------------------------------------|
E-------------------------------------------------------------------|

                                                        +-WAH-WAH--+
                                                        |          |
e--12---------------------------------------------------------------|
B-----15b17~ ---15b17r15-p12------------------------------12---12---|
G-----------------------------14b16r14-p12----12----12----12---12---|
D------------------------------------------14----14-----------------|
A-------------------------------------------------------------------|
E-------------------------------------------------------------------|

e-------------------------------------------------------------------|
B-------------------------------------------------------------------|
G--14-12-----------------12----14p12--------------------------------|
D--------14----14--12h14----14-------14--12h14-12-------------------|
A-------------------------------------------------14-12~ -----------|
E-------------------------------------------------------------------|

e-------------------------------------------------------------------|
B------15b17~ ---15b17r15-p12-----------------------------15--------|
G------------------------------14b16r14-p12--14b16--14b16~~~ -------|
D-------------------------------------------------------------------|
A-------------------------------------------------------------------|
E--0----------------------------------------------------------------|


                                              +------PALM MUTE------
                                              |    
e-------------------------------------------------------------------|
B-------------------------------------------------------------------|
G--14b16r14--14b16r14-12----14p12-----------------------------------|
D------------------------14-------14~ ------------------------------|
A---------------------------------------------------10----12-10-----|
E---------------------------------------------10-12----12-----------|


-------PALM MUTE-----------+
                           |
e---------------------------------12--------------------------------|
B------------------------------------15--------12h15p12-------------|
G--------------14----14\12--12~ --------14b16-----------14b16-------|
D--------12-14-14-14----12------------------------------------------|
A--12/14------------------------------------------------------------|
E-------------------------------------------------------------------|

e-------------------------------------------------------------------|
B-12h15p12----------------12---------------------------------15-----|
G----------14b16---14b16-----14b16--14b16r14-12-14b16~ ---16----14--|
D-------------------------------------------------------------------|
A-------------------------------------------------------------------|
E-------------------------------------------------------------------|

e----------14-------14h15h17--17b18b19~ --17b19r17-15----15---------|
B----15-17----15-17-----------------------------------17----18b20~--|
G-16----------------------------------------------------------------|
D-------------------------------------------------------------------|
A-------------------------------------------------------------------|
E-------------------------------------------------------------------|


Play 7 times
e-----------------------|
B--------8-----------8--|
G--------7-----------7--|
D--------5-----------5--|
A--------7-----------7--|
E--0-------0--0-0-------|
   Oh No no no....


RIFF C:
e---------------------------------|
B---------------------------------|
G---------------------------------|
D---------------------------------|
A-------7----5--------------------|
E-----------------7---6--5-----0--|
End RIFF C


Play RIFF C once:

       But maybe


Play RIFF B twice:

       I say maybe
       I didn't mean to treat you oh so bad
       But I did it anyway
       Now maybe
       Some would say you're left with what you had

Play RIFF C once:

       But you couldn't share the pain


Play RIFF B twice:

       I said times have changed
       Your friends they come and watch you crumble to the ground
       They watch you suffer
       Yeah they hold you down, hold you down
       Maybe brother maybe love I didn't mean to treat you bad


e---------------------------------|
B---------------------------------|
G---------------------------------|
D---------------------------------|
A-------7----5--------------------|
E-----------------7---6--5-----3--|
    But you left me far behind

 
e---------------------------------|
B---------------------------------|
G---------------------------------|
D---------------------------------|
A-------7----5--------------------|
E-----------------7---6--5-----3--|
       Left me    far behind


e---------------------------------|
B---------------------------------|
G---------------------------------|
D---------------------------------|
A-------7----5--------------------|
E-----------------7---6--5-----0--|
       Left me   far behind


e----3--||
B----3--||
G----4--||
D----5--||
A----5--||
E----3--||


---

+-------------------------------------------------+
| Roger Meech | rmeec@hcsd.hac.com | meech@sfu.ca |
+-------------------------------------------------+



Far Behind - Candlebox


       Now I am no good at writing tabs or anything, but I sat down and
figured this one out one day and since I haven't seen it in this
newsgroup yet, I thought someone might want to know it... but don't jump
all over me because it's not exactly right, but I think i'm pretty damn
close.


Main part: w/Chorus Effect

e|-------5---5h7---5-------7-7---------5-5-------------2------------|
B|-------------------------8-8---------7-7--------------3-----------|
G|-----0---0-----0--------------------------------------------------|
D|--------------------------------------------------0-----0---------|
A|------------------------------------------------------------------|
E|---------------------0--------------------------------------------|


   Now Maybe             I didn't mean to treat you bad


e|----------------------0----0---------|
B|-----------------3------3----3-------|
G|--------------0-----------0----0-----|
D|------------2------------------------|
A|--0---2-3----------------------------|
E|-------------------------------------|


    But I did it anyway...               etc..




        That's the main part, you just repeat that until you get to the
        chorus which is just these chords:

                  G Em D C9

               e|-2-0--2-0-
               B|-0-0--3-3-
               G|-0-0--2-0-
               D|-0-2--0-2-
               A|-2-2--x-3-
               E|-3-0--x-x-


         G       Em                           D
     Now maybe     I didn't mean to treat you oh so bad

           C9                   G     Em
     but I did it anyway    now maybe   some would say you're

               D                    C9
     left with what you had but you couldn't share the pain   no no no






        Sorry, no lead part in this one. Mebbe next time. Layter.
        Any questions or comments? E-mail:

        william.piersol@the-matrix.com








































variations - click chord images
Transpose chords:
Tuning:
Cool service:
View: Size:
A  A  A
Rating:
Layout:
  • Currently 0/5 Stars.
  • 1
  • 2
  • 3
  • 4
  • 5
 
Accuracy:
  • Currently 2.8/5 Stars.
  • 1
  • 2
  • 3
  • 4
  • 5
 
click stars to rate
Chordie recommends:
Learn to play songs at Jamplay.com with video guitar lessons
Songbook:
Login to add this song to your songbook
Support the artist
Preview/buy this song
MSN Music
Why this non-profit ad?

 
login to add comments/video/corrections