Guitar Tabs, Chords and Lyrics


at budakan album  Cheap Trick



-------------------------
E:  4/5-5-5-5-5-5-5-5 5-5-5-5-5-5-5-5       (repeat as necessary)
E:  4/5-5-5-5-5-5-5-5 5-5-5-5-5-5-5-5     (play twice)
A:  5-5-4------------      
E:  ------5-(5)-5-5-5      (play twice) 
--------------- 
A---------2---0--------2-3-4------------------------2-----------------------
E----0---------------------------------2------------------------------------
A---4-----------------------------2-------------
E-----------------2-----------------------------
-------
G--------------------------------------------------------------------
D---------------------------------------------------------------------
A--2-3-4-5-2-3-4-5-5-5-5-5-5-5-5-5-5-5-5-5-5-5-5-5-5-5-5-5-5-5-5-5-5-5
E---------------------------------------------------------------------
--------
G-------------------------4------3-7--------------------------4-----3-7--
D---------------1-5---2-5------4--------------------1-5---2-5-----4------
A----1-5------2----------------------------1-5----2----------------------
E--2-------------------------------------2------------------------------
G-------------------------------------------------------------------
D-------------------------------------------------------------------
A--------------------------------------------------------------5-6-7
E-------------------------------------------------------------------
A----------------------1-2-1-0----------------------------1-2-1-0----
E--0-0-0-0-0-0-0-0-0-0---------3-0----0-0-0-0-0-0-0-0-0-0---------3-0
A----------------------1-2-1-0--------------------------1-2-1-0-----1-2-1----
E--0-0-0-0-0-0-0-0-0-0---------3-0--0-0-0-0-0-0-0-0-0-0---------3-0-------3-0
A----------------------1-2-1-0-----1-2-1-0-----1-2-1-0-------------------
E--0-0-0-0-0-0-0-0-0-0---------3-0---------3-0---------3-0-0________(hold)
A--1-2-1-0-----1-2-1-0-----
E----------3-0---------3-0-
--------------
G----|------|-------|-----7-|-----7-9|--9-|-----------9-|-----7-|---7-9---
D----|------|-------|---9---|-9-9----|--9-|-----------9-|---9---|-9-------
A---7|-7-7-5|--5-5-7|-7-----|--------|--7-|-0-2-4-2-0-7-|-7-----|---------
E----|------|-------|-------|--------|--0-|-----------0-|-------|---------
G-------------------------------------------------------------------------
D-------------------------------------------------------------------------
A-------------------------------------------------------------------------
E-----5--------5--------5--------5--------5--------5--------5-------------
G-------------------------------------------------------------------------
D--------------------------------------------------------------------------
A-------------------------------------------------------------------------
E---5-0-3-0-7---7\\\\\\\\\5-------5----------3-5-----5------5--------------
G---------------------------------------------------------------------------
D---------------------------------------------------------------------------
A---------------------------------------------------------------------------
E-------5--------5-0-3-0-7----7--------------8------------------------------
G---------------------------------------
D---------------------------------------      repeat this as necessary
A---------------------------------------      it will change to an open E
E--0-0-0-0-0-0-0-0----0-0-0-0-0-3-2-0---      after the fast solo section
G---------------------------------------------------------------7--------
D---------------------------------------------------------------7--------
A--------------2-------4-------5--------7-------2-------4-------5--------
E-0-0----0-0-0---0-0-0---0-0-0----0-0-0---0-0-0---0-0-0---0-0-0----------
G----------------------------------9-9-9-9-9-9-9-9-9-9-9-9-9-9-9-9-9-9---
D----------------------------------9-9-9-9-9-9-9-9-9-9-9-9-9-9-9-9-9-9---
A----------------------------------7-7-7-7-7-7-7-7-7-7-7-7-7-7-7-7-7-7---
E----------------------------------0-0-0-0-0-0-0-0-0-0-0-0-0-0-0-0-0-0---
------------------
E----------0-0-------0-0-------------0-0--------0------2---3----
D---------5------------5-------------------------------------------
A-----4-7----7-----4-7---7------------------------4-------------4--
E---5------------5-------------------------0--4-7---7----0--4-7---7
D----------4-------------4---------------------------6-------------6---
A------4-7---7-------4-7---7---------------------6-9---9-------6-9-----
E----5-------------5---------------------------7-------------7---------
---------------------
---------
[Ab/Bb]        [Bb]        [Ab/Bb]        [Bb]
 
[B]Mother told me,  [F#]yes she told me, [E]I'd meet girls like you.  
[B]  She
[B]also told me, stay [F#]away, you'll ne[E]ver know what you'll catch.[B]
[E]Just the other day [F#]I heard of a sol[B]dier's falling off___     
Some In-
[E]doneasian junk [F#]that's going 'round [B]        [B]
 
[B]Mommy's all right [G#m7]daddy'd all right, they [F#sus]just seem a 
little wie
rd.
[E]     Surren[B]der,   Surren[G#m7]der, but don't [F#sus]give yourself away,
[E]        [E]way,______        way.______________
[A/B]        [A/B]        [B]        [B]
[A/B]        [A/B]        [B]        [B]
 
[B]Father says "Your [F#]mother's right, she's [E]really up on things."  [B]
[B]Before we married mom[F#]my served in the WACs [E]in the Philippines. 
[B]  No
w
[E]I had heard the WACs [F#]recruited old [B]maids for the war.   But mom
[E]my isn't one of [F#]those,  I've known [B]her all these years.  [B]
 
[B]Mommy's all right [G#m7]daddy'd all right, they [F#sus]just seem a 
little wie
rd.
[E]     Surren[B]der,   Surren[G#m7]der, but don't [F#sus]give yourself away,
[E]        [E]way,______        way.______________
[A/B]        [A/B]        [B]        [B]
[A/B]        [A/B]        [B]        [B]
 
[C]Whatever happened to all [G]this season's [F]losers of the year? [C]
[C]Every time I got [G]to thinking Where'd [F]they disappear.  [C]
[F]Then I woke up, [Gsus]mom and dad are roll[C]ing on the couch.
[F]Rolling numbers, rock [Gsus]and rolling, [C]got my Kiss records out.  [C]
 
[C]Mommy's all right [Am7]daddy'd all right, they [G7sus]just seem a 
little wier
d.
[F]     Surren[C]der,    Surren[Am7]der, but don't [Gsus]give yourself away,
[F]     [F]way,______     [G]way.______________  Away.
[C]        [F]        [C]        [G]    Away.
[C]        [F]        [C]        [G]    Surren
 
Repeat 3x
[C]der, surren[Am7]der, but don't [Gsus]give yourself away.
[F]    Surren[C]der, surren[Am7]der, but don't [Gsus]give yourself away.
 
Ending
[D]        [C]        [D]
[G]        [F]        [C]
 

Clock Strikes Ten
-----------------
intro:    
 
G-------16--12---14---------------14-----16----12
D--------------------12-------12-----------------
 
descending riff:
G--2-1-0---------------------------
D--------4-3-2-1-0-----------------
A------------------4-3-2-1-0-------
E----------------------------4-3-2-
 
intro twice
descending riff
 
verse
(E) Clock strikes ten it's a Saturday Night
    money in my pocket and it feels alright
(G) Not staying home gonna stay out late
(A) Gonna hear some rockin music it feels just great
A--3-2-1-0----------
E-----------4-3-2-1-
 
 
(E) Clock strikes twelve on a Saturday Night
(G) All the creeps are sleeping all the cools in sight
(B) All the kings and queens are out tonight 
(D) Are looking for some action til it feels alright
 
chorus
(D) Imagine what we're doing tonight (A)
(D) you really got me going tonight  (A)
(D) imagine what we're doing tonight (A)
(D) I'm crazy for some action tonight (A)
 
descending riff
 
second verse
Clock strikes two I'll be out all night
all my money's spent but that's alright
Not going home gonna stay out late
Get ready for some action want some action tonight
Clock strikes four I want some more
Everybody's layin on the floor 
Not going home gonna stay out late 
gonna get rockin before its too late
 
chorus
 
descending riff
 
intro twice (bass E)

cool thing rick does live:

E------------------------------------------------------------------15-
B---------------------------------------------------------------15----
G---16--12--14-----------14--16--12---16-12-14-----------14--12--------
D--------------12-----12-----------------------12-----12--------------
A---------------------------------------------------------------------
E----------------------------------------------------------------------
 
descending riff
 
third verse
Gonna get down gonna get on down
gonna get down gonna get on down
gonna get down gonan get on down
gonna get down gonna get down
gonna get down gonna get on down
get down gonna get on down
get down gonna 
get down gonna
get down na na na na na na na na na
 
chorus
 
outro:  chorus repeats, key change from D A to E B to F C
 

comments and corrections to senomar@bach.udel.edu
                     -I'm here, I'm queer, I play 5-string bass
                        (with my hamer 12-string on order)


Back to index / c / cheap_tri


Important: The song above is NOT stored on the Chordie server. The original song is hosted at tabfu.thudspace.net. Chordie works as a search engine and provides on-the-fly formatting. Chordie does not index songs against artists'/composers' will. To remove this song please click here.

Text color:
Chord color:
Chord grids: 
Font size:    
Page size: 

A/B Am7 B Bb C D E F F# F#sus G G#m7 G7sus Gsus
variations - click chord images

Login - add to songbook

Transpose chords

Tuning

Rating click stars to rate

Layout
Accuracy

SHARE PAGE  




You need to log in to post comments