Guitar Tabs, Chords and Lyrics
Major upgrade!! After one year development the new version of Chordie is now online! Please give feedback.


The Flame  Cheap Trick

 
 ---------------------------------------------------------------------

The Flame
by Cheap Trick
Transcription by Neil Bergin
Please note:
Where the words appear under the tab, the tab and the words timing
are NOT synchronised. I suggest you play the song a few time, get
playing the tab fluently and the tab/words timings will sort
themselves!!
Intro:
 
 E- -------------------------------------------------------------------------
 B- ---0----0----0----0--2-4-5---4----------2------4-------------------------
 G- ---2----2----2----2-------4--------4------4---------4--------------------
 D- ---2----2----2----2--------4-----4----------4-----4---4------------------
 A- -0----0----0----0--------------------2-----------------------------------
 E- -------------------------------------------------------------------------
 E- -------------------------------------------------------------------------
 B- ---0----0----0----0--2-4-5---4----------2------4-------------------------
 G- ---2----2----2----2-------4--------4------4---------4--------------------
 D- ---2----2----2----2--------4-----4----------4-----4---4------------------
 A- -0----0----0----0--------------------2-----------------------------------
 E- ------------------------------------------------------------------------- 

Verse 1:
 
 E- -------------------------------------------------------------------------
 B- ---0-----0-----0-----0----2--4--5------4-------2------4------------------
 G- ---2-----2-----2-----2------------4--------4-----4--------4--------------
 D- ---2-----2-----2-----2--------------4----4---4-----4----4---4------------
 A- -0-----0-----0-----0-----------------------------------------------------
 E- ------------------------------------------------------------------------- 

Another night slowly closes in and I feel so lonely
 
 E- -------------------------------------------------------------------------
 B- ---0------0------0------0-----2-4--5----4-----------2------4-------------
 G- ---2------2------2------2------------4--------4--------4--------4--------
 D- ---2------2------2------2--------------4----4---4--------4----4---4------
 A- -0------0------0------0--------------------------------------------------
 E- ------------------------------------------------------------------------- 

Touching heat freezing on my skin I pretend you still hold me
 
 E- -4------4-----4--4---------------4------4-----4--4-----------------------
 B- ------5-----5---------5-7---5---------5-----5--------5--7--5-------------
 G- ----6-----6---------6-----6---6-----6-----6--------6---------------------
 D- -------------------------------------------------------------------------
 A- -4---------------0---------------4---------------0-----------------------
 E- ------------------------------------------------------------------------- 

I'm going crazy I'm losing sleep I'm in too far I'm in way too deep over
you
 
 E- -4-----4--------2------2------2----------0-0-----------------------------
 B- -----5------5--------4------4-----0----0-------0--4--4--2--4--2--4--2--2-
 G- ---4-----4---------4------4----------2-------2----4--4--2--4--2--4--2--2-
 D- --------------------------------------------------4--4--2--4--2--4--2--2-
 A- ----------------2-----------------0---------------2--2--0--2--0--2--0--0-
 E- -0----------------------------------------------------------------------- 

I can't believe you're gone you were the first you were the last
Chorus:
[E]Wherever you [B]go I'll be with [A]you
[E]Whatever you [B]want I'll give it to [A]you
[E]Whenever you [B]need someone
To [E]lay you heart and [A]head upon
Remember [A]after the fire after [B]all the rain
[C#m]I will be the [D]flame I will be the flame
 
 E- -------------------------------------------------------------------------
 B- ---0----0----0----0--2-4-5---4----------2------4-------------------------
 G- ---2----2----2----2-------4--------4------4---------4--------------------
 D- ---2----2----2----2--------4-----4----------4-----4---4------------------
 A- -0----0----0----0--------------------2-----------------------------------
 E- ------------------------------------------------------------------------- 

Verse 2:
 
 E- -------------------------------------------------------------------------
 B- ---0----0----0----0--2-4-5------4-------2------4-------------------------
 G- ---2----2----2----2--------4--------4-----4--------4---------------------
 D- ---2----2----2----2----------4----4---4-----4----4---4-------------------
 A- -0----0----0----0--------------------------------------------------------
 E- ------------------------------------------------------------------------- 

Watching shadows move across the wall feels so fright'ning
 
 E- -------------------------------------------------------------------------
 B- ---0----0----0----0--2-4-5------4-------2------4-------------------------
 G- ---2----2----2----2--------4--------4-----4--------4---------------------
 D- ---2----2----2----2----------4----4---4-----4----4---4-------------------
 A- -0----0----0----0--------------------------------------------------------
 E- ------------------------------------------------------------------------- 

I wanna run to you I wanna call but I've been hit by lightning
 
 E- -4------4-----4--4---------------4------4-----4--4-----------------------
 B- ------5-----5---------5-7---5---------5-----5--------5--7--5-------------
 G- ----6-----6---------6-----6---6-----6-----6--------6---------------------
 D- -------------------------------------------------------------------------
 A- -4---------------0---------------4---------------0-----------------------
 E- ------------------------------------------------------------------------- 

Just can't stand up for falling apart
Can't see through this veil across my heart over you
 
 E- -4-----4--------2------2------2----------0-0-----------------------------
 B- -----5------5--------4------4-----0----0-------0--4--4--2--4--2--4--2--2-
 G- ---4-----4---------4------4----------2-------2----4--4--2--4--2--4--2--2-
 D- --------------------------------------------------4--4--2--4--2--4--2--2-
 A- ----------------2-----------------0---------------2--2--0--2--0--2--0--0-
 E- -0----------------------------------------------------------------------- 

You'll always be the one You were the first you'll be the last
Chorus:
[E]Wherever you [B]go I'll be with [A]you
[E]Whatever you [B]want I'll give it to [A]you
[E]Whenever you [B]need someone
To [E]lay you heart and [A]head upon
Remember [A]after the fire after [B]all the rain
[C#m]I will be the [D]flame I will be the flame
Solo:
 
 E- ----------------------------12--11--9--------------------------------14--
 B- ---------------------------------------12------------------------12------
 G- ------------------------------------------------------------8------------
 D- --9-9-9-9-9-9-9-11-9-----9-----------------9-9-9-9-9-9-9-11---9----------
 A- ----------------------12-------------------------------------------------
 E- -------------------------------------------------------------------------
 E- --16---14--------21---19---21--------------------------------------------
 B- -----------16------------------------------------------------------------
 G- -------------------------------------------------------------------------
 D- -------------------------------------------------------------------------
 A- -------------------------------------------------------------------------
 E- ------------------------------------------------------------------------- 

Bridge:
 
 E- -4------4-----4--4---------------4------4-----4--4-----------------------
 B- ------5-----5---------5-7---5---------5-----5--------5--7--5-------------
 G- ----6-----6---------6-----6---6-----6-----6--------6---------------------
 D- -------------------------------------------------------------------------
 A- -4---------------0---------------4---------------0-----------------------
 E- ------------------------------------------------------------------------- 

I'm going crazy I'm losing sleep I'm in too far I'm in way too deep over
 
 E- -4-----4--------2------2------2----------0-0-----------------------------
 B- -----5------5--------4------4-----0----0-------0--4--4--2--4--2--4--2--2-
 G- ---4-----4---------4------4----------2-------2----4--4--2--4--2--4--2--2-
 D- --------------------------------------------------4--4--2--4--2--4--2--2-
 A- ----------------2-----------------0---------------2--2--0--2--0--2--0--0-
 E- -0----------------------------------------------------------------------- 

you I can't believe you're gone you were the first you were the last
Chorus:
[E]Wherever you [B]go I'll be with [A]you
[E]Whatever you [B]want I'll give it to [A]you
[E]Whenever you [B]need someone
To [E]lay you heart and [A]head upon
Remember [A]after the fire after [B]all the rain
[C#m]I will be the [D]flame I will be the flame
Tab transcribed by Neil Bergin - etlnbb@etlxdmx.ericsson.se
Lyrics transcribed by Marc Virata
Any correction welcome..........

Important: The song above is NOT stored on the Chordie server. The original song is hosted at tabfu.thudspace.net. Chordie works as a search engine and provides on-the-fly formatting. Chordie does not index songs against artists'/composers' will. To remove this song please click here.

Text color:
Chord color:
Chord grids: 
Font size:    
Page size: 

A B C#m D E
Rate #1 of 5 versions

Jango Player

Login - add to songbook

SHARE PAGE  




You need to log in to post comments