Guitar Tabs, Chords and Lyrics


takin the bitch downtown   Unknown








Subject: Re: Tab: Takin' the Bitch Downtown -The Cocksuckers *NEW*
Date: 9 Nov 1995 05:36:37 GMT




                                    Transcribed, Written by
                                        Brian (Bung wiper) Ebbitt
Intro-Verse:
e---------------------------
b---------------------------
g---------------------------
d------------------9---9----
a----3---5---7-----9---9----
D------------------9---9----


Whoa!

I was in L.A.

hay!

and wanted a trick

who could suck big dick.

Chorus

e--------------------------
b--------------------------
g--------------------------
d-----------10---8--9----7------
a-----------10---8--9----7------
E-----------10---8--9----7------

Takin' the bitch downtown
takin' the Down......Town!


VerseII:

I was in Austrailia

And was lookin' for some genetailia

I drank a drown my kidneys

and slept with some aboriginees.

(chorus)
-- 







Important: The song above is NOT stored on the Chordie server. The original song is hosted at tabfu.thudspace.net. Chordie works as a search engine and provides on-the-fly formatting. Chordie does not index songs against artists'/composers' will. To remove this song please click here.

This song is displayed as text-only. Transposing and tuning is only available for chordpro-songs.

Login - add to songbook

Rating click stars to rate

Layout
Accuracy

SHARE PAGE  




You need to log in to post comments