Guitar Tabs, Chords and Lyrics


are you ready to be heartbroken   Lloyd Cole


e|--------------------------------|--------------------------------|


B|------3---------------5---------|------3---------------5---------|


G|----0-----0---0-----0-----0---0-|----0-----0---0-----0-----0---0-|


D|0H4---------4---4/5---------4---|0H4---------4---4/5---------4---|


A|--------------------------------|--------------------------------|


E|--------------------------------|--------------------------------|


e|--------------------------------|--------------------------------|


B|------3---------------3---------|------3---------------3---------|


G|----0-----0---0-----0-----0---0-|----0-----0---0-----0-----0---0-|


D|--0---------0-----0---------0---|--4---------4-----0---------0---|


A|3--------------/3---------------|3--------------/3---------------|


E|--------------------------------|--------------------------------|


e|0-------------------------------|0-------------------------------|


B|------3---------------3---------|------3---------3---------------|


G|----------0---0-----0-----0-----|----0-----0-----0---------------|


D|------------0-----0---------0---|------------0---0-----0-2-4-2-0-|


A|3--------------/3---------------|3---------------3---------------|


E|--------------------------------|--------------------------------|


e|--------------------------------|----------------0---------------|


B|------3---------------5---------|------3---------3---------------|


G|----0-----0---0-----0-----0---0-|----0-----0-----0---------------|


D|0H4---------4---4/5---------4---|0H4---------4---4---------------|


A|--------------------------------|--------------------------------|


E|--------------------------------|--------------------------------|


e|0-0-0-0---0---0---X-X-X-X-X-X-X-|0-0-0-0---0---0---X-X-X-X-X-X-X-|


B|3-3-3-3---3---3---X-X-X-X-X-X-X-|3-3-3-3---3---3---X-X-X-X-X-X-X-|


G|0-0-0-0---0---0---X-X-X-X-X-X-X-|0-0-0-0---0---0---X-X-X-X-X-X-X-|


D|2-2-2-2---2---2---X-X-X-X-X-X-X-|2-2-2-2---2---2---X-X-X-X-X-X-X-|


A|3-3-3-3---3---3---X-------------|3-3-3-3---3---3---X-------------|


E|--------------------------------|--------------------------------|


e|0-0-0-0---0---0---X-X-X-X-X-X-X-|0-0-0-0---0---0---X-X-X-X-X-X-X-|


B|1-1-1-1---1---1---X-X-X-X-X-X-X-|1-1-1-1---1---1---X-X-X-X-X-X-X-|


G|2-2-2-2---2---2---X-X-X-X-X-X-X-|2-2-2-2---2---2---X-X-X-X-X-X-X-|


D|3-3-3-3---3---3---X-X-X-X-X-X-X-|3-3-3-3---3---3---X-X-X-X-X-X-X-|


A|3-3-3-3---3---3---X-------------|3-3-3-3---3---3---X-------------|


E|--------------------------------|--------------------------------|


e|0-0-0-0---0---0---X-X-X-X-X-X-X-|0-0-0-0---0---0-----------------|


B|3-3-3-3---3---3---X-X-X-X-X-X-X-|3-3-3-3---3---3-----------------|


G|0-0-0-0---0---0---X-X-X-X-X-X-X-|0-0-0-0---0---0-----------------|


D|2-2-2-2---2---2---X-X-X-X-X-X-X-|2-2-2-2---2---2-----------------|


A|3-3-3-3---3---3---X-------------|3-3-3-3---3---3-----------------|


E|--------------------------------|--------------------------------|


e|--------------------------------|--------------------------------|


B|------3---------------5---------|------3---------------5---------|


G|----0-----0---0-----0-----0---0-|----0-----0---0-----0-----0---0-|


D|0H4---------4---4/5---------4---|0H4---------4---4/5---------4---|


A|--------------------------------|--------------------------------|


E|--------------------------------|--------------------------------|


e|--------------------------------|--------------------------------|


B|------3---------------3---------|------3---------------3---------|


G|----0-----0---0-----0-----0---0-|----0-----0---0-----0-----0---0-|


D|--0---------0-----0---------0---|--0---------0-----0---------0---|


A|3--------------/3---------------|3--------------/3---------------|


E|--------------------------------|--------------------------------|


e|--------------------------------|--------------------------------|


B|------3---------------5---------|------3---------------5---------|


G|----0-----0---0-----0-----0---0-|----0-----0---0-----0-----0---0-|


D|0H4---------4---4/5---------4---|0H4---------4---4/5---------4---|


A|--------------------------------|--------------------------------|


E|--------------------------------|--------------------------------|


e|--------------------------------|--------------------------------|


B|------3---------------3---------|------3---------------3---------|


G|----0-----0---0-----0-----0---0-|----0-----0---0-----0-----0---0-|


D|--0---------0-----0---------0---|--0---------0-----0---------0---|


A|3--------------/3---------------|3--------------/3---------------|


E|--------------------------------|--------------------------------|


e|----------------0---------------|--------------------------------|


B|----3-----3-----------3---------|--------------------------------|


G|------0H2---2-------------0---0-|----0-----0---------------------|


D|0---------------------------0---|------0H2---2---0---3-0-2-0-3-2-|


A|--------------------------------|3-------------------------------|


E|--------------------------------|--------------------------------|


e|----------------0H2P0-----------|--------------------------------|


B|----3-----3-----------3---------|--------------------------------|


G|------0H2---2-------------0---0-|----0-----0---------------------|


D|0---------------------------0---|------0H2---2---0---------------|


A|--------------------------------|3-------------------------------|


E|--------------------------------|--------------------------------|


Important: The song above is NOT stored on the Chordie server. The original song is hosted at tabfu.thudspace.net. Chordie works as a search engine and provides on-the-fly formatting. Chordie does not index songs against artists'/composers' will. To remove this song please click here.

This song is displayed as text-only. Transposing and tuning is only available for chordpro-songs.

Login - add to songbook

Rating click stars to rate

Layout
Accuracy

SHARE PAGE  




You need to log in to post comments