Guitar Tabs, Chords and Lyrics


damone   Deftones








Date: Fri, 13 Mar 1998 21:45:45 -0600
From: David 
Subject: d/deftones/damone.tab

Song: Damone  (Hidden Song)
Band: Deftones
Album: Around the Fur
Transcriber: Doug McKenney
Tuning:  Db-Ab-Db-Gb-Bb-Eb  (1/2 step drop d)

Intro
-----------------------------------------------------------
-----------------------------------------------------------
--6--7--2--3---------------------------------------------- Sorry, you
can figure out
--6--7--2--3---------------------------------------------- the rhythm.
--4--5--0--1----------------------------------------------
-----------------------------------------------------------

Verse
-----------------------------------------------------------
-----------------------------------------------------------
--10-\--------------------------------------------------------
---------0-----------------------------------------------------
-- 8--\--0---------------------------------------------------
---------0--------------------------------------------------

Pre Chorus Riff 1
-----------------------------------------------------------
-----------------------------------------------------------
--2--3----------------------------------------------------
--2--3----------------------------------------------------
--0--1----------------------------------------------------
-----------------------------------------------------------

Pre Chorus Riff 2  (on every fourth time of Riff 1)
-----------------------------------------------------------
-----------------------------------------------------------
--2--3--\--5------------------------------------------------
--2--3--\--5------------------------------------------------
--0--1--\--3------------------------------------------------
-----------------------------------------------------------



Chorus
-----------------------------------------------------------
-----------------------------------------------------------
--6--7--2--3----------------------------------------------
--6--7--2--3----------------------------------------------
--4--5--0--1----------------------------------------------
-----------------------------------------------------------


Bridge
-----------------------------------------------------------
-----------------------------------------------------------
--6-^--------------------------------------------------------
--6-----0------------------------------------------------------
--4-----0------------------------------------------------------
--------0-----------------------------------------------------

Here s how it goes

Intro   x 2
Verse    x 4
Pre Chorus Riff 1  x 2
Verse   x 4
Pre Chorus Riff 1  x 3
Pre Chorus Riff 2  x 1
Chorus  x 2
Verse   x 4
Pre Chorus Riff 1 x 3
Pre Chorus Riff 2 x 1
Chorus  x 2
Bridge   x 4
Verse   x 4
Pre Chorus Riff 1  x 3
Pre Chorus Riff 2  x 1
Chorus  x 4
Bridge  x 4



Here goes the lyrix
(Taken from Abbu s Deftones Site:
http://members.aol.com/mafiamunky/main.html)


Asleep in this hole. Stealing in lines. Ashamed of where you parked.

So far, I've been driving without you.

Check in line about four. Ashamed of where you parked.

So far, I've been driving without you. Except 3am when it's still dark
and digusted watch it
and regret this. Ask her why.
What's on?!? No why!?!? x2

As soon I been you. Locked outside. So I trained for you.

So far, I've been driving without you. Except 3am when it's still dark
and digusted watch it
and regret this. Ask her why.
What's on!!! No why!?!?

When this feeling gets old and so do your eyes. This is why I hate you.

So far, I've been driving without you. Except for you've ran. I'm still
drown. Stand still,
why you live right down this way. Ask
her why. What's on!!! No why!?!? NO!! WHY?!?








Important: The song above is NOT stored on the Chordie server. The original song is hosted at tabfu.thudspace.net. Chordie works as a search engine and provides on-the-fly formatting. Chordie does not index songs against artists'/composers' will. To remove this song please click here.

This song is displayed as text-only. Transposing and tuning is only available for chordpro-songs.

Login - add to songbook

Rating click stars to rate

Layout
Accuracy

SHARE PAGE  




You need to log in to post comments