eToCache5 = ""; ?> id rather be a cowboy by John Denver - guitar chords, guitar tabs and lyrics - chordie

id rather be a cowboy

John Denver



Date: Sat, 07 Mar 1998 13:42:06 PST
From: Jeremy Standlee 
Subject: TAB: I'd rather be a cowboy by John Denver

================================================================================
         Title : I'd Rather Be A Cowboy
        Artist : John Denver
         Album : Country Roads Collection '97
Transcribed by : Jeremy Standlee
================================================================================

1/11/98 

Ok this is my second tablature to date....There are a few areas in the
strumming that I know are a little off, but sound pretty good.  I might
add the lyrics to this if there is enough interest out there.  If anyone
has any comments, fixes or suggestions email me at jstand@hotmail.com

Legend
------

 h  = hammer-on
 p  = pull-off



E|-------2--2-------------2--2-----2--2-----------------------2--2----
B|-------3--3-------------3--3-----3--3-----------------------3--3----
G|-------2--2-------------2--2-----2--2-----------------------2--2----
D|--2h4--------4----2--0----------------------0-----0h2--2h4--4--4----
A|------------------------------0--------0h2--------------------------
D|-----------------------------------------------0--------------------
    Played in Drop D tuning


E|--2----2--2--|------------------------2--2-----2--2------------------
B|--3----3--3--|------------------------3--3-----3--3------------------
G|--2----2--2--|----------2-------------2--2-----2--2------------------
D|--4----------|--2h4--------4--2----0----------------------0-----0h2--
A|-------------|------------------------------0--------0h2-------------
D|-------------|-------0---------------------------------------0-------


E|-----2-----2----2--2-----2--2------------|-------2--2-------------2--
B|-----3-----3----3--3-----3--3------------|-------3--3-------------3--
G|-----2-----2----2--2-----2--2------------|-------2--2-------------2--
D|--0--------0----0--0-----0--0-------0h2--|--2h4--------4----2--0-----
A|-----------0-------------------0h2-------|---------------------------
D|--------0--0----------0------------------|---------------------------


E|--2-----2--2-----------------------2--2----2----2--2--|-------------
B|--3-----3--3-----------------------3--3----3----3--3--|-------------
G|--2-----2--2-----------------------2--2----2----2--2--|----------2--
D|-------------------0-----0h2--2h4--4--4----4----------|--2h4--------
A|-----0--------0h2-------------------------------------|-------------
D|----------------------0-------------------------------|-------0-----


E|-------------2--2-----2--2---------------------2--2-----2----2--2--|--
B|-------------3--3-----3--3---------------------3--3-----3----3--3--|--
G|-------------2--2-----2--2---------------------2--2-----2----2--2--|--
D|--4--2----0----------------------0-----0h2--0-----------0----0--0--|--
A|-------------------0--------0h2-------------------------0----------|--
D|------------------------------------0----------------0--0----------|--

E|-------2--2-------------2--2-----2--2-----------------------2--2----
B|-------3--3-------------3--3-----3--3-----------------------3--3----
G|-------2--2-------------2--2-----2--2-----------------------2--2----
D|--2h4--------4----2--0----------------------0-----0h2--2h4--4--4----
A|------------------------------0--------0h2--------------------------
D|-----------------------------------------------0--------------------

E|--2----2--2--|------------------------2--2-----2--2------------------
B|--3----3--3--|------------------------3--3-----3--3------------------
G|--2----2--2--|----------2-------------2--2-----2--2------------------
D|--4----------|--2h4--------4--2----0----------------------0-----0h2--
A|-------------|------------------------------0--------0h2-------------
D|-------------|-------0---------------------------------------0-------


E|-----2-----2----2--2--2--2--2--2--------------|--3--3--3--3--3--3--3--
B|-----3-----3----3--3--3--3--3--3--------------|--3--3--3--3--3--3--3--
G|-----2-----2----2--2--2--2--2--2--------------|--0--0--0--0--0--0--0--
D|--0--------0----0--0--0--0--0--0--------------|--0--0--0--0--0--0--0--
A|----------------------------------------------|--5--5--5--5--5--5--5--
D|--------0-------------------------0--2--3--4--|--5--5--5--5--5--5--5--
                                                   Approx. strumming

E|----2--2--2--2--2----3--2--0--2----3--3--3--3--3--3--3----2--2--2--2--
B|----3--3--3--3--3----3--3--3--3----3--3--3--3--3--3--3----3--3--3--3--
G|----2--2--2--2--2----2--2--2--2----0--0--0--0--0--0--0----2--2--2--2--
D|----0--0--0--0--0----0--0--0--0----0--0--0--0--0--0--0----0--0--0--0--
A|----0--0--0--0--0------------------5--5--5--5--5--5--5----0--0--0--0--
D|----0--0--0--0--0------------------5--5--5--5--5--5--5----0--0--0--0--


E|--2----3--2--0--2----3--3--3--3--3--3--3----2--2--2--2--2----3--2--0--
B|--3----3--3--3--3----3--3--3--3--3--3--3----3--3--3--3--3----3--3--3--
G|--2----2--2--2--2----0--0--0--0--0--0--0----2--2--2--2--2----2--2--2--
D|--0----0--0--0--0----0--0--0--0--0--0--0----0--0--0--0--0----0--0--0--
A|--0------------------5--5--5--5--5--5--5----0--0--0--0--0-------------
D|--0------------------5--5--5--5--5--5--5----0--0--0--0--0-------------


E|--2-------------------------|-------2--2-------------2--2-----2--2--
B|--3----2--2--2--2--2--2--2--|-------3--3-------------3--3-----3--3--
G|--2----2--2--2--2--2--2--2--|-------2--2-------------2--2-----2--2--
D|--0----2--2--2--2--2--2--2--|--2h4--------4----2--0-----------------
A|-------0--0--0--0--0--0--0--|------------------------------0--------
D|----------------------------|---------------------------------------


E|-----------------------2--2----2----2--2--|------------------------2--
B|-----------------------3--3----3----3--3--|------------------------3--
G|-----------------------2--2----2----2--2--|----------2-------------2--
D|-------0-----0h2--2h4--4--4----4----------|--2h4--------4--2----0-----
A|--0h2-------------------------------------|---------------------------
D|----------0-------------------------------|-------0-------------------


E|--2-----2--2---------------------2-----2----2--2-----2--2------------
B|--3-----3--3---------------------3-----3----3--3-----3--3------------
G|--2-----2--2---------------------2-----2----2--2-----2--2------------
D|-------------------0-----0h2--0--------0----0--0-----0--0-------0h2--
A|-----0--------0h2----------------------0-------------------0h2-------
D|----------------------0-------------0--0----------0------------------



E--|-------2--2-------------2--2-----2--2-----------------------2--2--
B--|-------3--3-------------3--3-----3--3-----------------------3--3--
G--|-------2--2-------------2--2-----2--2-----------------------2--2--
D--|--2h4--------4----2--0----------------------0-----0h2--2h4--4--4--
A--|------------------------------0--------0h2------------------------
D--|-----------------------------------------------0------------------


E|----2----2--2--|------------------------2--2-----2--2---------------
B|----3----3--3--|------------------------3--3-----3--3---------------
G|----2----2--2--|----------2-------------2--2-----2--2---------------
D|----4----------|--2h4--------4--2----0----------------------0-----0h
A|---------------|------------------------------0--------0h2----------
D|---------------|-------0---------------------------------------0----

E|--------2--2-----2----2--2--|-------2--2-------------2--2-----2--2--
B|--------3--3-----3----3--3--|-------3--3-------------3--3-----3--3--
G|--------2--2-----2----2--2--|-------2--2-------------2--2-----2--2--
D|--2--0-----------0----0--0--|--2h4--------4----2--0-----------------
A|-----------------0----------|------------------------------0--------
D|--------------0--0----------|---------------------------------------


E|-----------------------2--2----2----2--2--|------------------------2--
B|-----------------------3--3----3----3--3--|------------------------3--
G|-----------------------2--2----2----2--2--|----------2-------------2--
D|-------0-----0h2--2h4--4--4----4----------|--2h4--------4--2----0-----
A|--0h2-------------------------------------|---------------------------
D|----------0-------------------------------|-------0-------------------


E|--2-----2--2---------------------2-----2----2--2--2--2--2--2--------
B|--3-----3--3---------------------3-----3----3--3--3--3--3--3--------
G|--2-----2--2---------------------2-----2----2--2--2--2--2--2--------
D|-------------------0-----0h2--0--------0----0--0--0--0--0--0--------
A|-----0--------0h2---------------------------------------------------
D|----------------------0-------------0-------------------------0--2--


E--------|--3--3--3--3--3--3--3----2--2--2--2--2----3--2--0--2----3--3--
B--------|--3--3--3--3--3--3--3----3--3--3--3--3----3--3--3--3----3--3--
G--------|--0--0--0--0--0--0--0----2--2--2--2--2----2--2--2--2----0--0--
D--------|--0--0--0--0--0--0--0----0--0--0--0--0----0--0--0--0----0--0--
A--------|--5--5--5--5--5--5--5----0--0--0--0--0------------------5--5--
D--3--4--|--5--5--5--5--5--5--5----0--0--0--0--0------------------5--5--



E|--3--3--3--3--3----2--2--2--2--2----3--2--0--2----3--3--3--3--3--3--
B|--3--3--3--3--3----3--3--3--3--3----3--3--3--3----3--3--3--3--3--3--
G|--0--0--0--0--0----2--2--2--2--2----2--2--2--2----0--0--0--0--0--0--
D|--0--0--0--0--0----0--0--0--0--0----0--0--0--0----0--0--0--0--0--0--
A|--5--5--5--5--5----0--0--0--0--0------------------5--5--5--5--5--5--
D|--5--5--5--5--5----0--0--0--0--0------------------5--5--5--5--5--5--


E|--3----2--2--2--2--2----3--2--0--2-------------------|--2--0--------
B|--3----3--3--3--3--3----3--3--3--3----2--2--2--2--2--|--------3--2--
G|--0----2--2--2--2--2----2--2--2--2----2--2--2--2--2--|--------------
D|--0----0--0--0--0--0----0--0--0--0----2--2--2--2--2--|--------------
A|--5----0--0--0--0--0------------------0--0--0--0--0--|--------------
D|--5----0--0--0--0--0---------------------------------|--------------


E|--------------------------------------|--0--0--0--0--0--0----3--3--3--
B|--0-----------------------------------|--2--2--2--2--2--2----3--3--3--
G|-----2--0-----0-----------------------|--2--2--2--2--2--2----0--0--0--
D|-----------4-----4--2--0--2--0--------|--2--2--2--2--2--2----0--0--0--
A|--------------------------------4--2--|--0--0--0--0--0--0----5--5--5--
D|--------------------------------------|----------------------5--5--5--


E|--3--3----2--2--2--2--2----0--0--0--0--0--0----3--3--3--3--3----2--2--
B|--3--3----3--3--3--3--3----2--2--2--2--2--2----3--3--3--3--3----3--3--
G|--0--0----2--2--2--2--2----2--2--2--2--2--2----0--0--0--0--0----2--2--
D|--0--0----0--0--0--0--0----2--2--2--2--2--2----0--0--0--0--0----0--0--
A|--5--5----0--0--0--0--0----0--0--0--0--0--0----5--5--5--5--5----0--0--
D|--5--5----0--0--0--0--0------------------------5--5--5--5--5----0--0--


E|--2--2--2----2--2--2--2--2----|--0--0--0--0--0--0----3--3--3--3--3--
B|--3--3--3----3--3--3--3--3----|--2--2--2--2--2--2----3--3--3--3--3--
G|--2--2--2----2--2--2--2--2----|--2--2--2--2--2--2----0--0--0--0--0--
D|--0--0--0----0--0--0--0--0----|--2--2--2--2--2--2----0--0--0--0--0--
A|--0--0--0----0--0--0--0--0----|--0--0--0--0--0--0----5--5--5--5--5--
D|--0--0--0----0--0--0--0--0----|----------------------5--5--5--5--5--


E|----2--2--2--2--2----0--0--0--0--0----3--3--3--3--3----0--0--0--0--0--
B|----3--3--3--3--3----1--1--1--1--1----3--3--3--3--3----0--0--0--0--0--
G|----2--2--2--2--2----0--0--0--0--0----0--0--0--0--0----0--0--0--0--0--
D|----0--0--0--0--0----2--2--2--2--2----0--0--0--0--0----2--2--2--2--2--
A|----0--0--0--0--0----3--3--3--3--3----5--5--5--5--5----2--2--2--2--2--
D|----0--0--0--0--0---------------------5--5--5--5--5-------------------

E|--0----0--0--0--0--0--0----0--0--|-------2--2-------------2--2-----2--
B|--0----2--2--2--2--2--2----2--2--|-------3--3-------------3--3-----3--
G|--0----2--2--2--2--2--2----2--2--|-------2--2-------------2--2-----2--
D|--2----2--2--2--2--2--2----2--2--|--2h4--------4----2--0--------------
A|--2----0--0--0--0--0--0----0--0--|------------------------------0-----
D|---------------------------------|------------------------------------

E--2-----------------------2--2----2----2--2--|------------------------
B--3-----------------------3--3----3----3--3--|------------------------
G--2-----------------------2--2----2----2--2--|----------2-------------
D----------0-----0h2--2h4--4--4----4----------|--2h4--------4--2----0--
A-----0h2-------------------------------------|------------------------
D-------------0-------------------------------|-------0----------------


E|--2--2-----2--2---------------------2--2-----2----2--2--|-------2--2--
B|--3--3-----3--3---------------------3--3-----3----3--3--|-------3--3--
G|--2--2-----2--2---------------------2--2-----2----2--2--|-------2--2--
D|----------------------0-----0h2--0-----------0----0--0--|--2h4--------
A|--------0--------0h2-------------------------0----------|-------------
D|-------------------------0----------------0--0----------|-------------


E|-------------2--2-----2--2-----------------------2--2----2----2--2--
B|-------------3--3-----3--3-----------------------3--3----3----3--3--
G|-------------2--2-----2--2-----------------------2--2----2----2--2--
D|--4----2--0----------------------0-----0h2--2h4--4--4----4----------
A|-------------------0--------0h2-------------------------------------
D|------------------------------------0-------------------------------


E--|------------------------2--2-----2--2---------------------2-----2--
B--|------------------------3--3-----3--3---------------------3-----3--
G--|----------2-------------2--2-----2--2---------------------2-----2--
D--|--2h4--------4--2----0----------------------0-----0h2--0--------0--
A--|------------------------------0--------0h2-------------------------
D--|-------0---------------------------------------0-------------0-----

E----2--2--2--2--2--2--------------|--3--3--3--3--3--3--3----2--2--2--
B----3--3--3--3--3--3--------------|--3--3--3--3--3--3--3----3--3--3--
G----2--2--2--2--2--2--------------|--0--0--0--0--0--0--0----2--2--2--
D----0--0--0--0--0--0--------------|--0--0--0--0--0--0--0----0--0--0--
A----------------------------------|--5--5--5--5--5--5--5----0--0--0--
D----------------------0--2--3--4--|--5--5--5--5--5--5--5----0--0--0--


E|--2--2----3--2--0--2----3--3--3--3--3--3--3----2--2--2--2--2----3--2--
B|--3--3----3--3--3--3----3--3--3--3--3--3--3----3--3--3--3--3----3--3--
G|--2--2----2--2--2--2----0--0--0--0--0--0--0----2--2--2--2--2----2--2--
D|--0--0----0--0--0--0----0--0--0--0--0--0--0----0--0--0--0--0----0--0--
A|--0--0------------------5--5--5--5--5--5--5----0--0--0--0--0----------
D|--0--0------------------5--5--5--5--5--5--5----0--0--0--0--0----------



E|--0--2----3--3--3--3--3--3--3----2--2--2--2--2----3--2--0--2----------
B|--3--3----3--3--3--3--3--3--3----3--3--3--3--3----3--3--3--3----2--2--
G|--2--2----0--0--0--0--0--0--0----2--2--2--2--2----2--2--2--2----2--2--
D|--0--0----0--0--0--0--0--0--0----0--0--0--0--0----0--0--0--0----2--2--
A|----------5--5--5--5--5--5--5----0--0--0--0--0------------------0--0--
D|----------5--5--5--5--5--5--5----0--0--0--0--0------------------------


E|-----------------------------|--3--3--3--3--3--3--3----2--2--2--2--2--
B|--2--2--2--2--2--2--2--2--2--|--3--3--3--3--3--3--3----3--3--3--3--3--
G|--2--2--2--2--2--2--2--2--2--|--0--0--0--0--0--0--0----2--2--2--2--2--
D|--2--2--2--2--2--2--2--2--2--|--0--0--0--0--0--0--0----0--0--0--0--0--
A|--0--0--0--0--0--0--0--0--0--|--5--5--5--5--5--5--5----0--0--0--0--0--
D|-----------------------------|--5--5--5--5--5--5--5----0--0--0--0--0--


E|----3--2--0--2----3--3--3--3--3--3--3----2--2--2--2--2----3--2--0--2--
B|----3--3--3--3----3--3--3--3--3--3--3----3--3--3--3--3----3--3--3--3--
G|----2--2--2--2----0--0--0--0--0--0--0----2--2--2--2--2----2--2--2--2--
D|----0--0--0--0----0--0--0--0--0--0--0----0--0--0--0--0----0--0--0--0--
A|------------------5--5--5--5--5--5--5----0--0--0--0--0----------------
D|------------------5--5--5--5--5--5--5----0--0--0--0--0----------------


E|----3--3--3--3--3--3--3----2--2--2--2--2----3--2--0--2----------------
B|----3--3--3--3--3--3--3----3--3--3--3--3----3--3--3--3----2--2--2--2--
G|----0--0--0--0--0--0--0----2--2--2--2--2----2--2--2--2----2--2--2--2--
D|----0--0--0--0--0--0--0----0--0--0--0--0----0--0--0--0----2--2--2--2--
A|----5--5--5--5--5--5--5----0--0--0--0--0------------------0--0--0--0--
D|----5--5--5--5--5--5--5----0--0--0--0--0------------------------------


E|--------------|-------2--2-------------2--2-----2--2------------------
B|--2--2--2--2--|-------3--3-------------3--3-----3--3------------------
G|--2--2--2--2--|-------2--2-------------2--2-----2--2------------------
D|--2--2--2--2--|--2h4--------4----2--0----------------------0-----0h2--
A|--0--0--0--0--|------------------------------0--------0h2-------------
D|--------------|-----------------------------------------------0-------


E|-------2--2----2----2--2--|------------------------2--2-----2--2----
B|-------3--3----3----3--3--|------------------------3--3-----3--3----
G|-------2--2----2----2--2--|----------2-------------2--2-----2--2----
D|--2h4--4--4----4----------|--2h4--------4--2----0-------------------
A|--------------------------|------------------------------0--------0h
D|--------------------------|-------0---------------------------------


E|------------------------2--*|--
B|------------------------3--*|--
G|------------------------2--*|--
D|-----0-----0h2--0-------4--*|--
A|--2---------------------0--*|--
D|--------0----------0----0--*|--









































variations - click chord images
Transpose chords:
Tuning:
Cool service:
View: Size:
A  A  A
Rating:
Layout:
  • Currently 0/5 Stars.
  • 1
  • 2
  • 3
  • 4
  • 5
 
Accuracy:
  • Currently 3.6/5 Stars.
  • 1
  • 2
  • 3
  • 4
  • 5
 
click stars to rate
Chordie recommends:
Learn how to play guitar at JamPlay.com
Songbook:
Login to add this song to your songbook
Support the artist
Preview/buy this song
MSN Music
Why this non-profit ad?

 
login to add comments/video/corrections