leaving on a jet plane

John Denver


Received: from animal-farm.nevada.edu by redrock.nevada.edu (5.65c/M1.4)
with SMTP id ; Wed, 8 Sep 1993 08:37:33 -0700
Received: from mail-a.bcc.ac.uk by animal-farm.nevada.edu id ; Wed, 8 Sep 1993 08:37:24 -0700
Received: from balder.anat.ucl.ac.uk by mail-a.bcc.ac.uk with SMTP (PP) 
          id ; Wed, 8 Sep 1993 16:36:47 +0100
Received: from brahma.anat.ucl.ac.uk by balder.anat.ucl.ac.uk (4.1/SMI-4.1) 
          id AA00472; Wed, 8 Sep 93 16:34:52 BST
Received: by brahma.anat.ucl.ac.uk (4.1/SMI-4.1) id AA00742;
          Wed, 8 Sep 93 16:34:51 BST
Date: Wed, 8 Sep 1993 16:34:03 +0100 (BST)
From: Patrick Martin 
Subject: Leaving on a Jet Plane Bob Denver
To: tab 
Message-Id: 
Mime-Version: 1.0
Content-Type: TEXT/PLAIN; charset=US-ASCII

Leaving on a Jet Plane (John Denver)
Melody Notes
Taken from The Complete Guitar Player by Russ Shipton
Transcribed by Patrick Martin

2-----------0-----------------------0-----------------0-----------------------
------2-----------3-----2-----------------3-----2-----------3-----2-----------
------------------------------2-----------------------------------------2-----
------------------------------------------------------------------------------
------------------------------------------------------------------------------
------------------------------------------------------------------------------
Kiss  me    and   smile for   me,   tell  me    that  you'llwait  for   me.   

0-----------------0-----------------------------------0-----0-----0-----------
------3-----2-----------3-----2-----------2-----0-----------------------2-----
------------------------------------2-----------------------------------------
------------------------------------------------------------------------------
------------------------------------------------------------------------------
------------------------------------------------------------------------------
Hold  me    like  you'llnev-  er    let   me    go.   Cause I'm   leav- ing   

2-----0-----------0-----0-----------0-----------0-----------------------0-----
------------3-----------------2-----------3-----------3-----2-----------------
------------------------------------------------------------------2-----------
------------------------------------------------------------------------------
------------------------------------------------------------------------------
------------------------------------------------------------------------------
on    a     jet   plane,don't know  when  I'll  be    back  a-    gain. Oh    

------------------------------
3-----2-----0-----------0-----
------------------2-----------
------------------------------
------------------------------
------------------------------
babe  I     hate  to    go.










































variations - click chord images
Transpose chords:
Tuning:
Cool service:
View: Size:
A  A  A
Rating:
Layout:
  • Currently 0/5 Stars.
  • 1
  • 2
  • 3
  • 4
  • 5
 
Accuracy:
  • Currently 2.7/5 Stars.
  • 1
  • 2
  • 3
  • 4
  • 5
 
click stars to rate
Chordie recommends:
Learn to play guitar with video-based, online guitar lessons at JamPlay.com
Songbook:
Login to add this song to your songbook
Support the artist
Preview/buy this song
MSN Music
Why this non-profit ad?

 
login to add comments/video/corrections