Guitar Tabs, Chords and Lyrics


 Fly On The Windscreen-Final  Â Depeche Mode - 'Black Celebration' (86)





[G#m]Death is everywhere
[G#m]There are flies on the windscreen
[G#m]For a start
[G#m]Reminding us
[G#m]We could be torn apart
[B]Tonight

  G#m
E----------|----------|----------|
B----------|----------|----------|
G--4-3-----|--4-3-----|----------|
D------4-3-|------4-3-|----1-----|
A----------|----------|--4-------|
E----------|----------|----------|

[G#m]Death is everywhere
[G#m]There are lambs for the slaughter
[G#m]Waiting to die
[G#m]And I can sense
[G#m]The hours slipping by
[B]Tonight

[G#m]Come here
[C]Kiss me
[Fm]Now [E]
[G#m]Come here
[C]Kiss me
[Fm]Now [E]

[G#m]Death is everywhere
[G#m]The more I look
[G#m]The more I see
[G#m]The more I feel
[G#m]A sense of urgency
[B]Tonight

[G#m]Come here
Touch me
[C]Kiss me
Touch me
[Fm]Now [E]
Touch me
Touch me

[G#m]There are flies on the windscreen
[G#m]There are lambs for the slaughter
[B]There are flies on the windscreen

[G#m]Come here
Touch me
[C]Kiss me
Touch me
[Fm]Now [E]
Touch me
Touch me


 for chorus
  G#m       C         Fm        E
E---------|---0-1-3-|-4-1-----|-7-6-4-0-|
B-4-2-0-2-|---------|-----1---|---------|
G---------|-0-------|-------1-|---------|
D-1-------|-2-------|-3-------|---------|
A---------|---------|---------|-7-------|
E---------|---------|---------|---------|


 if here is something wrong, please, e-mail me
 or e-mail me for no special reason...  :-)

---------------------------------------
From: Max Stepanov, Russia, St.Petersburg
e-mail: profi@dux.ru
---------------------------------------
29 June 1997

Back to index / d / depeche_mo

Important: The song above is NOT stored on the Chordie server. The original song is hosted at tabfu.thudspace.net. Chordie works as a search engine and provides on-the-fly formatting. Chordie does not index songs against artists'/composers' will. To remove this song please click here.

Text color:
Chord color:
Chord grids: 
Font size:    
Page size: 

B C E Fm G#m
variations - click chord images

Login - add to songbook

Transpose chords

Tuning

Rating click stars to rate

Layout
Accuracy

SHARE PAGE  




You need to log in to post comments