"yes"; ?> somebody by Depeche Mode - guitar chords, guitar tabs and lyrics - chordie

somebody

Depeche Mode


                                  Somebody                                                                               
                               by Depeche Mode
                             written by M.L. Gore
                          transcribed by Kevin Bills
                               (kbills@vt.edu)

        I've tried best I can to transcribe the piano part for this song for 
guitar.  It's a pretty smooth sweet song to play.  The interlude is described 
without tab, unfortuantely I have too much homework to do to tab that out, 
but it's pretty simple.
                               

  I want somebody to share     share the  rest of my life    share my
E-|---------|-------------|-------------|---------------|------------|
B-|---------|-0-----------|-------------|-0-------------|------------|
G-|---------|----0----2---|-------0-----|------0------2-|-------0----|
D-|---------|------0------|----0------0-|----------0----|--0-------0-|
A-|---------|-------------|-------------|---------------|------------|
E-|---------|-3-------3---|-------------|-3-----------3-|------------|
                                                                               
   innermost thoughts know my    intimate  details someone who'll                                                                            
E-|------------------|----------|------------|----------------|
B-|-1-----------0----|-------0--|-1----------|----------------|
G-|---2--------------|-----2----|---2------2-|----------2-----|
D-|------2-----------|---2------|-----2------|-2-----------2--|
A-|-0-----------0----|----------|-0----------|----------------|
E-|------------------|----------|------------|----------------|
                                                                               
    stand by my side            and  give me support          and                                                                           
E-|------------------|-------------|---------------|-------------|
B-|-0----------------|-------------|--0------------|-------------|
G-|--------0-------2-|-------0-----|-----0-------2-|-------0-----|
D-|-----------0------|----0------0-|--------0------|----0------0-|
A-|------------------|-------------|---------------|-------------|
E-|-3------------- 3-|-------------|--3----------3-|-------------|
                                                                               
    in return     she'll get  my   support    she will                                                                       
E-|----------|--------------|-------------|-----------|
B-|-1------0-|------------0-|-1---0-------|-----------|
G-|---2------|------2-------|-2------2----|-----------|
D-|------2---|--2-----------|-------------|-----------|
A-|-0------0-|--------------|-0---------0-|-----------|
E-|----------|--------------|-------------|-----------|
                                                                               
     listen to me       when  I want to speak  about the                                                                          
E-|---------------|----------|-------------|-----------|
B-|----3--------0-|----0-----|--3--------3-|------3--3-|
G-|-------2-----0-|--0----0--|-----2-----4-|---4-------|
D-|----0-----0----|----------|--0-----0----|-----------|
A-|---------------|----------|-----------2-|-----------|
E-|-------------3-|----------|-------------|-----------|

    world we    live in and  life in  general though my                                                                           
E-|-----------|-----------|---------|------------------|
B-|-3-----1---|--0-----0--|--3----3-|--0---------------|
G-|----2------|-----0-----|-----2-2-|------0----0----0-|
D-|-----------|-----------|---------|------------------|
A-|-0---------|-----------|--0------|------------------|
E-|-----------|--3--------|---------|--3---------------|
                                                                               
   views may be  wrong they may even be per verted she'll                                                                           
E-|------------|---------------|-----------|------------|
B-|------------|---------------|---------3-|----3-------|
G-|----0--2--0-|---------0--0--|------2--2-|-2--2-------|
D-|------------|---0-----------|----4------|------------|
A-|------------|---------------|--2------2-|------------|
E-|-3----------|---------------|-----------|------------|
                                                                               
   hear me out  and won't  easily be converted   to                                                                          
E-|------------|---------|--------------|----------|
B-|-1--------0-|---------|-3----------1-|----------|
G-|-2--2-------|--2------|----2---------|--2-------|
D-|-------2----|-----2---|-------2------|-----2----|
A-|-0--------0-|-------0-|-0----------0-|--------0-|
E-|------------|---------|--------------|----------|
                                                                             
   my way of thinking in fact she'll often disagree but in the end of it all                                                                      
E-|-------------|-----------------|-------------|------------|-----------|
B-|-----------0-|-----------------|-----------1-|------------|-----------|
G-|-------0-----|---------0-------|--------2----|------------|--------0--| 
D-|----0--------|-0------------0--|-----2-------|------------|------0----|
A-|-------------|-----------------|--0----------|------------|----0------|
E-|-3-----------|-----------------|-------------|------------|--3--------|

   she will understand me
E-|--------|-----------------|
B-|--------|---------3-------|
G-|--------|-------2-2-------| 
D-|--------|-----4-----------|
A-|--------|---2-------------|
E-|--------|-----------------|

        The interlude (with is also the ending) is simply alternating between 
the C and G chords.  Finger pick them out in a similar fashion as above.

Second Verse:

I want somebody who cares
for me passionately
with every thought and with every breath
someone who'll help me see things in a different light
all the things i detest i will almost like
I don't want to be tied to anyones strings
I'm carefully trying to stay clear of those things
but when I'm asleep, i want somebody
who will put their arms around me kiss me tenderley
though things like this, make me sick
in a case like this
I'll get away with it

interlude fade out








































variations - click chord images
Transpose chords:
Tuning:
Cool service:
View: Size:
A  A  A
Rating:
Layout:
  • Currently 0/5 Stars.
  • 1
  • 2
  • 3
  • 4
  • 5
 
Accuracy:
  • Currently 2.6/5 Stars.
  • 1
  • 2
  • 3
  • 4
  • 5
 
click stars to rate
Chordie recommends:
Learn how to play guitar at JamPlay.com
Songbook:
Login to add this song to your songbook
Support the artist
Preview/buy this song
MSN Music
Why this non-profit ad?

 
login to add comments/video/corrections