Guitar Tabs, Chords and Lyrics


 The Bottom Line  Â Depeche Mode - 'Ultra' (97)





[Dm]Like a cat
Dragged in from the [F?]rain
Who goes [Dm]straight back out
To [F]do it all over [B]again
I'll be back for [Dm]more
[Dm]It's something
That is out of our [F]hands
[Dm]Something we will [F]never under[B]stand
It's a hidden [Dm]law

The apple [C]falls
Destiny [B]calls
I follow[F] you

[F]

 you may play the next verse like this:
  Dm              F               Dm
E-------0-1-0---------------------------0-1-0------
B-----3-------3-1-3-------1-----------3-------3-1--
G---2-------------------2---2-------2--------------
D-0-------------------3-------3---0----------------
A-------------------3-----------3------------------
E-----------------1--------------------------------

  F               B               B
E-----------------------0-1-0----------------------
B-3-------1-----------3-------3-1-3-------3--------
G-------2---2-------3-------------------3---3------
D-----3-------3-----------------------3-------3----
A---3-----------3-1-----------------1-----------1--
E-1------------------------------------------------

  Dm              Dm
E-------0-1-0----------------------
B-----3-------3-1-3-------3--------
G---2-------------------2---2------
D-0-------------------3-------0----
A-------------------0-----------0--
E----------------------------------

 of course, it's not too close to source :-)

Like a [Dm]pawn
On the eternal [F]board
Who's [Dm]never quite sure
[F]What he's moved [B]towards
I walk blindly [Dm]on
And heaven is in front of [F]me
[Dm]Your heaven beckons [F]me enticingly[B]
When I arrive
It's [Dm]gone

The river [C]flows
The wise man [B]knows
I follow [F]you

[F]

[C]I'm yearning
[B]I'm burning
[C]I feel love's [B]wheels turning [C]

[C7]

Like a [Dm]moth on love's bright [F]light
[Dm]I will get burned
[F]Each and every [B]night
I'm dying [Dm]to(o)

The sun will[C] shine
The bottom [B]line
I follow[F] you

[C]I'm yearning
[B]I'm burning
[C]I feel love's [B]wheels turning [C]

[C7]

Like a [Dm]moth on love's bright [F]light
[Dm]I will get burned
[F]Each and every [B]night
I'm dying [Dm]to(o)

The sun will [C]shine
The bottom [B]line
I follow [F]you

The sun will [Cbm-5]shine
The bottom [Bm6]line
I follow [F]you


 if here is something wrong, please, e-mail me
 or e-mail me for no special reason...  :-)

---------------------------------------
From: Max Stepanov, Russia, St.Petersburg
e-mail: profi@dux.ru
---------------------------------------
27 July 1997

Back to index / d / depeche_mo

Important: The song above is NOT stored on the Chordie server. The original song is hosted at tabfu.thudspace.net. Chordie works as a search engine and provides on-the-fly formatting. Chordie does not index songs against artists'/composers' will. To remove this song please click here.

Text color:
Chord color:
Chord grids: 
Font size:    
Page size: 

B Bm6 C C7 Dm F
variations - click chord images

Login - add to songbook

Transpose chords

Tuning

Rating click stars to rate

Layout
Accuracy

SHARE PAGE  




You need to log in to post comments