heru mertar

Al Di Meola


+==============================================================================+
|                          AL DI MEOLA                                         |
|        >>>>>>>>>>>      'HERU MERTAR'      <<<<<<<<<<<                       |
|                       from WORLD SIMFONIA                                    |
|                                                transcribed by B!l a$  (M.W.) |
+==============================================================================+

Hi!!! This is my transcription of Al Di Meola's ~Heru Mertar~ from
         World Simfonia/Hearts of the Immigrants

-->3rd position                                            repeat
E|-------------|-------------|-------------|-------------|---   --|
B|-------3-----|-------3-----|-------3-----|-------3-----|---   --|
G|-------3-----|-------3-----|-------3-----|-------3-----|--- % --|
D|-----7-------|-----7-------|-----7-------|-----7-------|---   --|
A|---5---------|---5---------|---5---------|---5---------|---   --|
E|-3-----------|-3-----------|-3-----------|-3-----------|---   --|

-->8th position
E|-------------|-------------|-----   ------|-----
B|---------8---|---------8---|-----   ------|-----
G|---------8---|---------8---|----- % ------|-----
D|------12-----|------12-----|-----   ------|-----
A|---10--------|---10--------|-----   ------|-----
E|-8-----------|-8-----------|-----   ------|-----

-->6th position
E|-------------|-------------|-----   ------|-----
B|--------6----|--------6----|-----   ------|-----
G|--------7----|--------7----|----- % ------|-----
D|-----10------|-----10------|-----   ------|-----
A|---8---------|---8---------|-----   ------|-----
E|-6-----------|-6-----------|-----   ------|-----

-->8th position
E|-------------|-------------|-----   ------|-----
B|---------8---|---------8---|-----   ------|-----
G|---------8---|---------8---|----- % ------|-----
D|------12-----|------12-----|-----   ------|-----
A|---10--------|---10--------|-----   ------|-----
E|-8-----------|-8-----------|-----   ------|-----

-->6th position
E|-------------|-------------|-----   ------|-----
B|--------6----|--------6----|-----   ------|-----
G|--------7----|--------7----|----- % ------|-----
D|-----10------|-----10------|-----   ------|-----
A|---8---------|---8---------|-----   ------|-----
E|-6-----------|-6-----------|-----   ------|-----

-->1st position
E|-------------|-------------|-----   ------|-----
B|-------1-----|-------1-----|-----   ------|-----
G|-------2-----|-------2-----|----- % ------|-----
D|-----5-------|-----5-------|-----   ------|-----
A|---3---------|---3---------|-----   ------|-----
E|-1-----------|-1-----------|-----   ------|-----


-->3rd position
E|-------------|-------------|-------------|-------------|---   --|
B|-------3-----|-------3-----|-------3-----|-------3-----|---   --|
G|-------3-----|-------3-----|-------3-----|-------3-----|--- % --|
D|-----7-------|-----7-------|-----7-------|-----7-------|---   --|
A|---5---------|---5---------|---5---------|---5---------|---   --|
E|-3-----------|-3-----------|-3-----------|-3-----------|---   --|
                                                                etc.

___________
some notes:
~~~~~~~~~~~
--->          AL DI MEOLA - GUITAR, ROLAND GRI GUITAR SYNTHESIZER
        ARTO TUNCBOYACIAN - PERCUSSION, VOICE

--- if the 1st position is  difficult for you ----+
                                                  |
                                                  |
   +--------- use this version!!! ----------------+
   |
   |       E|------------|--
   |       B|-------1----|--      ( D|------------|--
           A|---3--------|--
           E|-1----------|--

--> any comments please email  wycinka@pozn4v.put.poznan.pl

                              HAVE FUN !!!!!!!!

                                                      B!l a$








































variations - click chord images
Transpose chords:
Tuning:
Cool service:
View: Size:
A  A  A
Rating:
Layout:
  • Currently 0/5 Stars.
  • 1
  • 2
  • 3
  • 4
  • 5
 
Accuracy:
  • Currently 3.3/5 Stars.
  • 1
  • 2
  • 3
  • 4
  • 5
 
click stars to rate
Chordie recommends:
Learn to play songs at Jamplay.com with video guitar lessons
Songbook:
Login to add this song to your songbook
Support the artist
Preview/buy this song
MSN Music
Why this non-profit ad?

 
login to add comments/video/corrections