Guitar Tabs, Chords and Lyrics


abilene gal   Jerry Douglas








Date: Thu, 14 May 1998 17:32:45 -0400
From: Richard Barber 
Subject: d/douglas_jerry/abilene_gal.tab

"Abilene Gal"

Jerry Douglas version from 
"The Great Dobro Sessions"

Transcribed by Rich Barber 
gralau@twd.net



Tuning: GBDGBD

The song consists of 4 phrases.  Each phrase is played 4 times before
going on to the next phrase.


Intro

---0----------0------------0-------------
--/3\--------/5\----------/8\------------
-------/4----------/4----------/4--------
----------------------------------------- -----
---------------------------------------
-0---0----0-----0------0-----0---------------


phrase 1

-------0-2-0---------------------------------
---------------0-----0-----------------------
-----0-----------2-0---2-0-------------------
-0-2-----------------------2-0---------------
---------------------------------------------
---------------------------------------------


-------0-2-0---------------------------------
-------------0-------------------------------
-----0---------2-0---------------------------
-0-2---------------2-0-----------------------
-----------------------0---------------------
-----------------------------2-0-------------







phrase 2

------0------0------0-------0----------------
---------------------------------------------
---------------------------------------------
----0------0------0------0-------------------
-/3------3-^×---3------3----------------------
------------------------------/4\------------


---------------------------------------------
---------------------------------------------
-------0-2-0---------------------------------
-----------0-------2-0----------------------- 
-----0-----------------0-0-------------------
-0-2-----------------------2-0---------------   


phrase 3

---------------------------------------------
-0--------0--------0-------------------------
------0-2------0-2---0-2-0-------------------
---------------------------2-0---------------
---------------------------------------------
---------------------------------------------


---------------------------------------------
-----0-----0---------------------------------
-0-2---2-0---2-0-----0-----------------------
-----------------2-0---2-0-------------------
---------------------------0-----------------
-----------------------------2----0----------


phrase 4

----0-0----0-0----0-0---2-0------------------
-/3------3------3----------------------------
------------------------------0-/4-----------
---------------------------------------------
---------------------------------------------
---------------------------------------------





-------0-7-5-----5---0-----------------------
-----0-------------5---0---------------------
-0-2---------------------2-0-0---------------
---------------------------------------------
---------------------------------------------
---------------------------------------------


Jerry does some variations with each pass but this gives the basic
structure of the song.

Now all you have to do to sound just like Jerry is play this song at
"warp 8" (for those of you who never watched "Star Trek" that means
REALLY fast!!)







Important: The song above is NOT stored on the Chordie server. The original song is hosted at tabfu.thudspace.net. Chordie works as a search engine and provides on-the-fly formatting. Chordie does not index songs against artists'/composers' will. To remove this song please click here.

This song is displayed as text-only. Transposing and tuning is only available for chordpro-songs.

Login - add to songbook

Rating click stars to rate

Layout
Accuracy

SHARE PAGE  




You need to log in to post comments