Guitar Tabs, Chords and Lyrics


amphetamine   Everclear









Date: Thu, 23 Oct 1997 22:38:07 -0400 (EDT)

To: guitar@olga.net
Subject: TAB:Everclear:Amphetamine

Amphetamine
Track #9 from Everclear's "So Much For The Afterglow"
Transcribed by Mike DeSanctis                          
                          
                          _____________________
                         |      Riff A         |
e|----------------------------------------------------------------------
B|-14-11-13---14-11-13---14-11-14-11-14-11-14-11------------------------
G|-15-15-15---15-15-15---15-15-15-15-15-15-15-15------------------------
D|---------------------------------------------------------------------- 
A|----------------------------------------------------------------------
E|----------------------------------------------------------------------

Play Riff A
She came out west, to find the sun, she lost her name but found a new one
p.m.|*********************Play x2*****************************|
   e|---------------------------------------------------------|-----------
   B|---------------------------------------------------------|----------
   G|---------66666666--------66666666--------66666666--------|--6-------
   D|-66666666666666668888888866666666666666666666666688888888|--6-------
   A|-66666666444444448888888844444444666666664444444488888888|--4-------
   E|-44444444--------66666666--------44444444--------66666666|----------

She's perfect in a fucked up way that all the magazines...         
                       Play 2x                               
e|---------------------------------------------------------|-------------
B|---------------------------------------------------------|-------------
G|---------66666666--------66666666--------66666666--------|--6---------
D|-66666666666666668888888866666666666666666666666688888888|--6---------
A|-66666666444444448888888844444444666666664444444488888888|--4---------
E|-44444444--------66666666--------44444444--------66666666|------------

        Yeah she looks so board sometimes
p.m.|************************************|
   e|--------------------------------------------------------------------
   B|--------------------------------------------------------------------
   G|--------------------------------------------------------------------
   D|-66666-----66666-----66666-----66666--------------------------------
   A|-66666-----66666-----66666-----66666--------------------------------
   E|-44444-----44444-----44444-----44444--------------------------------

She has that super pale skin and those soft green eyes, she looks...
e|----------------------------------------------------------------------
B|----------------------------------------------------------------------
G|----------------------------------------------------------------------
D|-6--6--6--6----8--8--8--8----9--9--9--9----11-11-11-11----------------
A|-6--6--6--6----6--6--6--6----9--9--9--9----11-11-11-11----------------
E|-4--4--4--4----6--6--6--6----7--7--7--7----9--9--9--9-----------------

Solo:
 |                Play 3x                           | bend        ~~~~~~
e|-9--9--9--9--11-11-11-11--14-14-14-14--11-11-11-11|-------------------
B|-10-10-10-10-12-12-12-12--15-15-15-15--12-12-12-12|11\9----9^11-9-----
G|--------------------------------------------------|-----11------------
D|--------------------------------------------------|------------------- 
A|--------------------------------------------------|-------------------
E|--------------------------------------------------|-------------------









Important: The song above is NOT stored on the Chordie server. The original song is hosted at tabfu.thudspace.net. Chordie works as a search engine and provides on-the-fly formatting. Chordie does not index songs against artists'/composers' will. To remove this song please click here.

This song is displayed as text-only. Transposing and tuning is only available for chordpro-songs.

Login - add to songbook

Rating click stars to rate

Layout
Accuracy

SHARE PAGE  




You need to log in to post comments