Guitar Tabs, Chords and Lyrics


queen of the air   Everclear


|-----------------------------------------|


|-----------------------------------------|


G|--------7b9-------------


G|--------7b8-------------


e|------------------------------------------------------|


B|------------------------------------------------------|


G|-9---9--11-9--8---8--9--11-9---9--1111-6--8-8--4--6-6-|


D|-x---x--x--x--x---x--x--x--x---x--x-x--x--x-x--x--x-x-|


A|-7---7--9--7--6---6--7--9--7---7--9-9--4--6-6--2--4-4-|


E|------------------------------------------------------|


e|--4-------5--------------------------0----------------|


B|----4-------5------0-------2---------0----------------|


G|5-----5-6-----6------1-------3-------1----------------|


D|-----------------2-----2-4-----4-----2----------------|


A|------------------------------------------------------|


E|------------------------------------------------------|


e|------------------------------------------------------|


B|------------------------------------------------------|


G|------------------------------------------------------|


D|--6-6-6-6--7-7-7-7--2-2-2-2--4-4-4-4------------------|


A|--6-6-6-6--7-7-7-7--2-2-2-2--4-4-4-4------------------|


E|--4-4-4-4--5-5-5-5--0-0-0-0--2-2-2-2------------------|


e|------------------------------------------------------|


B|------------------------------------------------------|


G|--13-13-13-13--14-14-14-14--9-9-9-9-11-11-11-11-------|


D|--13-13-13-13--14-14-14-14--9-9-9-9-11-11-11-11-------|


A|--11-11-11-11--12-12-12-12--7-7-7-7-9--9--9--9--------|


E|------------------------------------------------------|


e|------------------------------------------------------|


B|-12--12----12-12-12----12-12--------------------------|


G|-9---11b13-9--8--11b13-9--11b13-13-11-9-8-99--88-----9|


D|---------------------------------------------9--9-11--|


A|------------------------------------------------------|


E|------------------------------------------------------|


Important: The song above is NOT stored on the Chordie server. The original song is hosted at tabfu.thudspace.net. Chordie works as a search engine and provides on-the-fly formatting. Chordie does not index songs against artists'/composers' will. To remove this song please click here.

This song is displayed as text-only. Transposing and tuning is only available for chordpro-songs.

Login - add to songbook

Rating click stars to rate

Layout
Accuracy

SHARE PAGE  




You need to log in to post comments