Guitar Tabs, Chords and Lyrics


the twist inside   Everclear










Date: Wed, 29 May 96 18:20:23 EDT

Subject: Tab - The Twistinside, by Everclear



Tab:
Artist: Everclear
Song: The Twistinside
Transcribed by: Dan Patterson


This song has alot of fill ins so i'm gonna put everything down 
and just listen to the song and play along here it goes.

Intro:
e:-4-4-4-4-4-4-4-4-10--10--10-10---10--10--10-10-----
B:--6---6---6---6----12--12-----12---12--12-----12---
G:0---0---0---0---0----------0----0----------0-------
D:---------------------------------------------------
A:---------------------------------------------------
E:---------------------------------------------------

verse:
e:10-10-10-10-10\-3-3-3-3-3\5-5-5-5-5\3-3-3-3-3\10---Back to
B:12-12-12-12-12-\5-5-5-5-5\7-7-7-7-7\5-5-5-5-5\12---beginning


for this part i'm going to put the chords and listen for the 
strum.

e:----10-8--6-5-----------  where the 6,88 chord is the        
B:----12-10-8-7-----------  second guitar does this
G:-8-------------8--7-----  e:-3--             
D:-8-------------8--7-----  B:-5-- 
A:-6-------------6--5-----
E:------------------------

After that is this part which is the bass the first few 2 times 
then the guitar plays this.

e:---------------
B:---------------
G:---------------
D:-5--7---9--10--  4x Each chord gets played
A:-5--7---9--10--
E;-3--5---7--8---


chorus:  here's the chords listen for the strum.

e:-----------
B:-----------
G:---8-----5-
D:5--8--8--5-
A:5--6--8--3-
E:3-----6----


here is the little mini solo:

G:-0235323--0235323-023-023-0235323--

After solo is this: listen for strum
e:-10---12---
B:-10---12---
G:-10---12---


here is all the little fill-ins listen to learn where they are.
not in any specific order down here.
G:12-12-14-14-15-15-14-14 repeats

G:15-15-18-17----then---6666---7--

outro:
e:16-14-13-11p10-9b--

one part i forgot towards the beginning you can hear a chord 
being tremelo picked this is the chord
e:-10---
B:-12---








Important: The song above is NOT stored on the Chordie server. The original song is hosted at tabfu.thudspace.net. Chordie works as a search engine and provides on-the-fly formatting. Chordie does not index songs against artists'/composers' will. To remove this song please click here.

This song is displayed as text-only. Transposing and tuning is only available for chordpro-songs.

Login - add to songbook

Rating click stars to rate

Layout
Accuracy

SHARE PAGE  




You need to log in to post comments