Chordie logo

the chain   Fleetwood Mac










Subject: Tab-Fleetwood Mac-"The Chain"
Date: 15 Nov 1996 04:29:04 GMT



The Chain
by Fleetwood Mac


Standard Tuning
Chords Used:
 
Em  022000
A    x07650
A7  x07680
Bm/D  xx0432
Am/C  x3x210
Am7   x02013
C      x32010
Dsus4  xx0233
G   3x0033

Intro:

-0--------0---0--3p0-------0--------0-
-0---3p0-------0-----3p0--0---3p0----
-----------------------------------------    Play                         
    
-2-----------------------------2----------     Twice                     
-2-----------------------------2----------
-0-----------------------------0----------

Em                       A      A7           Bm/D  Am/C 
Listen to the wind blow, watch the sunrise
Em                 A      A7                         
Run in the shadow, damn your love,
                  Bm/D   Am/C  Em         
 damn your lies

Played as:

-------2-----------0---------3-0-----------0--
-----3--3--------1--1------------3-0------0--
----4----4------2----2----------------2-0-----
-0--------------------------------------------2---
--------------3-------------------------------2--
-----------------------------0----------------0--

Chorus
          Am7
And if you don't love me now, 

You will never love me again
         Em               C
I can still here you saying 
                   Dsus4
You would never break the chain
                 Am7
And if you don't love me now

You will never love me again
         Em               C
I can still hear you saying
                  Dsus4               Em  
You would never break the chain

(Fill in here is similar to intro)

2nd Verse

Listen to the wind blow
Down comes the night
Run in the shadow
Damn your love, damn your lies
Damn the dark damn the night

Chorus

After 2nd Chorus:

-0---2--2-----2------2------2-----2---
-0---1----1-----1------1------1-----1-
-------------------------------------------   Play 4                
-2---2------2-----2------2------2------   Times                 
-2-----------------------------------------
-0----------------------------------------


----------------------------------------
----------------------------------------
----------------------------------------
----------------------------------------
-0----0-2-3-2-0---0-2-----------------
--------------------3------0----0-0-0-0--

Am      C  G              Em
Chains      keep us togethor

Running in the shadows

Repeat to end



Date: Tue, 23 Dec 1997 22:14:06 EST
From: Mandy1423 
Subject: The Chain

The Chain

Fleetwood Mac

I have only tabbed the intro, the other posts has the rest of the song.
You'll have to get the rhythm from the CD, "The Dance".
E-------------------------------*-------------------------------*
B-----0-----2-----2-------------*-----0-----2-----2-------------*
G-------------------------------*-------------------------------*
D--------2-----0--------2-----2-*--------2-----0--------2-----2-*
A-------------------------------*-------------------------------*
E--0-----------------0-----0----*--0-----------------0-----0----*

E-------------------------------*-------------------------------*
B-----0-----2-----2-------------*-----0-----2-----2-------------*
G-------------------------------*-------------------------------*
D--------2-----0--------2-----2-*--------2-----0--------2-----2-*
A-------------------------------*-------------------------------*
E--0-----------------0-----0----*--0-----------------0-----0----*

E-----------------0--0----------*-----------------0--0----------*
B--3-----3-----3----------------*--3-----3-----3----------------*
G-------------------------------*-------------------------------*
D-----2-----2-----2-----2-----2-*-----2-----2-----2-----2-----2-*
A-------------------------------*-------------------------------*
E--0-----0-----0-----0-----0----*--0-----0-----0-----0-----0----*

E-----------------0--0----------*3-2-0-----3--2--0--------------*
B--3-----3-----3----------------*-------3-----------------------*
G-------------------------------*-------------------------------*
D-----2-----2-----2-----2-----2-*-----2-----2-----2-----2-----2-*
A-------------------------------*-------------------------------*
E--0-----0-----0-----0-----0----*--0-----0-----0-----0-----0----*

E-------------------------------*-------------------------------*
B-----0-----2-----2-------------*-----0-----2-----2-------------*
G-------------------------------*-------------------------------*
D--------2-----0--------2-----2-*--------2-----0--------2-----2-*
A-------------------------------*-------------------------------*
E--0-----------------0-----0----*--0-----------------0-----0----*

E-------------------------------*3-2-0--------------------------*
B-----0-----2-----2-------------*------3------------------------*
G-------------------------------*-------------------------------*
D--------2-----0--------2-----2-*---------0-2-------------------*
A-------------------------------*-----------2-------------------*
E--0-----------------0-----0----*-----------0-------------------*







Important: The song above is NOT stored on the Chordie server. The original song is hosted at tabfu.thudspace.net. Chordie works as a search engine and provides on-the-fly formatting. Chordie does not index songs against artists/composers will. To remove this song please click here.

This song is displayed as text-only. Transposing and tuning is only available for chordpro-songs.

Login - add to songbook

Rating click stars to rate

Layout
Accuracy

SHARE PAGE  



You need to log in to post comments