fallin down

Goo Goo Dolls


From: st93vtzh (dan)

Alright I just raed this message and decided to try to tab this.  Please
be understanding, not only is this my first post but it is also my first
written tab.  It's not all that hot but I got the gist of it, lyrics are
either wrong or missing anyone wanna fill them in, please do, any
criticism or additions are greatly appreciated.  By the way the Goo Goo
Dolls rule!  New albums awesome too.


Fallin Down
-----------
by the Goo Goo Dolls


Intro w/ distortion

------------------------------------------------------------------------
------------------------------------------------------------------------
--6---9---4----4---6---9-9---4--2---------------------------------------
--6---9---4----4---6---9-9---4--2---------------------------------------
--4---7---2----2---4---7-7---2--0---------------------------------------
------------------------------------------------------------------------


------------------------------------------------------------------------
------------------------------------------------------------------------
--6---9---4---6---2-----2-2-2---4--4------------------------------------
--6---9---4---6---2-----2-2-2---4--4------------------------------------
--4---7---2---4---0-----0-0-0---2--2------------------------------------
------------------------------------------------------------------------



------------------------------------------------------------------------
------------------------------------------------------------------------
--6---9---4----4---6---9-9---4--2---------------------------------------
--6---9---4----4---6---9-9---4--2---------------------------------------
--4---7---2----2---4---7-7---2--0---------------------------------------
------------------------------------------------------------------------


------------------------------------------------------------------------
------------------------------------------------------------------------
--6---9---4---6---------------------------------------------------------
--6---9---4---6---2-----------------------------------------------------
--4---7---2---4---2-----------------------------------------------------
------------------0-----------------------------------------------------

B5              C#5
Do you know  Where you want to go

G#5             A5
I ain't got time for you now

B5              C#5
Do you think  That'll ever be


Pre Chorus:
  
E5    D#5    C#5     B5     A5 ( or some sorta slide like that)
Cuz all I ever want is so far gone

E5    D#5    C#5     B5     A5 
And if I had my chance I'd go along


Chorus:

(Just play the intro through the chorus)
You're making me fall down
I'm fallin' down again
I wish you could fall down
Can you catch me darlin


Do you see  What you do for me
You make time for me now
Do you think that'll ever be

Pre Chorus

Chorus

Alright, next we have a solo, I suck at tabbing solos, but I did tab the
lead in to the solo, and then for the solo I just play the intro, which is
being played also.

--------------------------     ----------------------------------
---------4--4h5p4-0-4-5---     ---5-4---7--5--5------------------
--6-6---------------------     ----------------------------------
--6-6---------------------x3   ----------------------------------
--4-4---------------------     ----------------------------------
--------------------------     ----------------------------------

nows when I play the intro

then:

pre chorus

Chorus

---------------------------------------------------------------------------

Is was no work of art but it was my best shot
Like I said, any improvements, Please do!

L8r

Dan









































variations - click chord images
Transpose chords:
Tuning:
Cool service:
View: Size:
A  A  A
Rating:
Layout:
  • Currently 0/5 Stars.
  • 1
  • 2
  • 3
  • 4
  • 5
 
Accuracy:
  • Currently 2.6/5 Stars.
  • 1
  • 2
  • 3
  • 4
  • 5
 
click stars to rate
Chordie recommends:
Get acoustic guitar lessons and electric guitar lessons at JamPlay.com
Songbook:
Login to add this song to your songbook
Support the artist
Preview/buy this song
MSN Music
Why this non-profit ad?

 
login to add comments/video/corrections