paradise city

Guns N'Roses


Received: from mail1.its.rpi.edu (mail1.its.rpi.edu [128.113.100.7]) by post-office.nevada.edu (8.6.4/8.6.4) with ESMTP id QAA15484 for ; Sun, 6 Mar 1994 16:14:01 -0800
Received: from localhost (cevasp@cii3112-25.its.rpi.edu [128.113.109.175]) by mail1.its.rpi.edu (8.6.4/8.6.4) with SMTP id TAA01261 for ; Sun, 6 Mar 1994 19:15:14 -0500

Received: by localhost (AIX 3.2/UCB 5.64/AIXV3-SUB16);
id AA16145; Sun, 6 Mar 1994 19:13:54 -0500 for jamesb@nevada.edu
Date: Sun, 6 Mar 1994 19:13:54 -0500
Message-Id: 
To: jamesb@nevada.edu

Artist: Guns N' Roses
Song: Paradise City
Album: Appetite for Destruction

Transcribed by (?) Mark Phillips and Jon Chappell (editors)
   Copyright 1989
   Cherry Lane Music Company, Inc.

Typed by Patrick Cevasco

I tried to get the spacing as close to the book as possible.  If I
could not fit the whole figure across the width of the page, I 
continued it on the next line indented.

Key:

h = hammer
BF = bend full
BFR = bend full and release
BH = bend half
P.M. = palm mute
/\/\/ = vibrato
% = repeat previous
 70
-------------------------------------------------------------------->


Tune down 1/2 step (one fret)


Rhy. Fig. 1

  G     C    

|-3---3-----3-----3-------|---------3-----3-----3-------|
|-0-----0-----0-----0---0-|-1---------1-----1-----1---1-|
|-0-------0-----0-----0---|-0-----------0-----0-----0---|
|-0-----------------------|-0h2---2---------------------|
|-2-----------------------|-----3-----------------------|
|-3-----------------------|-----------------------------|

    Fadd9             C                 G

    |--------3----------------3-------|---3----3-------------------|
    |--1---1---1---1--1-----1---1---0-|-0--0-----0-----0---0-------|
    |--0h2-------2----0-----------0---|-0----0-----0h2---0------0--|
    |--0h3------------0h2-------------|-0--------------------0h2---|
    |---------------------3-----------|-2--------------------------|
    |---------------------------------|-3--------------------------|





Rhy. Fig. 2 

 *
             P.M.--|                     P.M.---|
|-------------------------|----------------------------|
|-------------------------|-5--------------------------|
|---------------------5-5-|-5--------------------10-10-|
|5--------------------5-5-|-5--------------------10-10-|
|5--------------------3-3-|-3---------------------8--8-|
|3------------------------|----------------------------|

                  
                  P.M.--|      P.M.--|  *
    |---------------------------------|----------------------------|
    |-10-----------------5------------|----------------------------|
    |-10-------------5-5-5------------|----------------------------|
    |-10-------------5-5-5------------|-5--------------------------|
    |--8-------------3-3-3------------|-5--------------------------|
    |-----------------------------3-3-|-3--------------------------|


(* I am not sure if this is the correct G5. This figure was not tabbed in 
the book.  The other G5 that was listed at the top of the page 
was: )
|-3-|
|-3-|
|-0-|
|-0-|
  |-X-|
|-3-|



Riff B

|--------------------------------------------|---------------------|
|----------------------15--------------------|---------------------|
|-------12-12--------------14BF-14BFR--12----|-----------%---------|
|-12h14---------14-12---------------------14-|---------------------|
|--------------------------------------------|---------------------|
|--------------------------------------------|---------------------|


 Riff B-1
 /\/\/\/\/\/\/\/\/\
 |--------------------------------------------|---------------------|
 |-13BF-----13BF-----13-----10BFR------8------|-10------------------|
 |-----------------------------------------9--|---------------------|
 |--------------------------------------------|---------------------|
 |--------------------------------------------|---------------------|
 |--------------------------------------------|---------------------|


 Riff B-2
                   Hold Bend
            _________________
               |        |  /\/\/\/\/\/\/\/\/\
 |-------------|----15---------|--------------|---------------------|
 |-13-------13BF--------13-----R------12h13---|-12------------------|
 |--------------------------------------------|---------------------|
 |--------------------------------------------|---------------------|
 |--------------------------------------------|---------------------|
 |--------------------------------------------|---------------------|




Riff C


P.M.-----------------------------------|
  /\/        /\/       
|--------------------------------------------|
|--------------------------------------------|
|---------------------------------------3----|
|------------------------------------5--3----|
|-5---3---4--5---3---4--5---3--5--3--5--1----|
|-3---1---2--3---1---2--3---1--3--1--3-------|


  P.M.-----------------------------------|
    /\/\/\     /\/\/\
  |--------------------------------------------|
  |--------------------------------------------|
  |------------------------------------5--3----|
  |------------------------------------3--3----|
  |-5---3---4--5---3---4--5---3--5--3--3--1----|
  |-3---1---2--3---1---2--3---1--3--1----------|


    P.M.-----------------------------------|
      /\/        /\/    
    |--------------------------------------------|
    |--------------------------------------------|
    |---------------------------------------3----|
    |------------------------------------5--3----|
    |-5---3---4--5---3---4--5---3--5--3--5--1----|
    |-3---1---2--3---1---2--3---1--3--1--3-------|


      P.M.----------------------------------|
        /\/       \/\
      |--------------------------------------------|
      |--------------------------------------------|
      |-----------------------------------5---3----|
      |--------------------------5---3----3---3----|
      |-5---3---4--5----3---4----5---3----3---1----|
      |-3---1---2--3----1---2----3---1-------------|




Rhy. Fig. 3 (w/ partial 1st verse for timing)

      P.M.---------------------------------------|
  /\/
|-----------------------------------------------------|
|--------------------------------------------------3--|
|--------------------------------------------------3--|
|--------------------------------------------------3--|
|--------------------------------------------------1--|
|-3----1---2---3---3---1---2---3---1---3---1---3------|

 1.  Just...                                     I'm...


        P.M.-----------------------------|
    /\/
  |---------------------------------------------------|
  |----------------------------------------5----3-----|
  |----------------------------------------5----3-----|
  |----------------------------------------5----3-----|
  |----------------------------------------3----1-----|
  |-3----1---2--3--3--1--2--3--1--3---1---------------|

     hard...                               I'm  your...  


         P.M.----------------------------------------|
      /\/
    |-----------------------------------------------------|
    |--------------------------------------------------3--|
    |--------------------------------------------------3--|
    |--------------------------------------------------3--|
    |--------------------------------------------------1--|
    |-3----1---2---3---3---1---2---3---1---3---1---3------|

   charity...                                 eat.  


                P.M.-----|
         /\/\/\/\
       |------------------------------------|--------------|
       |--------------------------3---------|--------5-----|
       |--------------------------3---------|--------5-----|
       |--------------------------3---------|--------5-----|
       |--------------------------1---------|--------3-----|
       |-3---------1---2---3----------------|--------------|
     pay   you....          another...             time.


          |-----------------------------------------------------|
          |-----------------------------------------------------|
          |--------------------------------------------/\-------|
          |-------------------------------------------/--\------|
          |--3BH--------1---3---1--------------------/----------|
          |-------------------------1---3----------(3)----------|
  Take...       the...       line.             (slide)



-------------------------------------------------------------------->|

O.K. 
So the song goes like this:

(Rhy. Fig. 1) x 2

(Chorus w/Rhy. Fig. 1) x 2
Take me down to the paradise city, 
where the grass is green and the girls are pretty.
Oh won't you please take me home.

(Rhy. Fig. 2) x 2

[Riff B then Riff B-1) w/Rhy. Fig. 2]
[Riff B then Riff B-2) w/Rhy. Fig. 2]

(Riff C)

(Verse 1 w/Rhy. Fig. 3)
Just an urchin livin' under the street.
I'm a ... hard case that's tough to beat.
I'm your charity case, so buy me something to eat.
I'll pay you at another time.

(Riff C)

(Verse 2 w/Rhy. Fig. 3)

(Chorus w/Rhy. Fig. 1) x 2


(Solo) not included


Then comes this....

     |------10-----------10-------10-----------10------8------|
     |--------------------------------------------------------|
     |10h11----12--10h11----10h11----12--10h11----8h9---------|
     |--------------------------------------------------------|
     |--------------------------------------------------------|
     |--------------------------------------------------------|
   So  far                                     a - way.

After which slide each note on the G string (3rd from the bottom)
down two frets (i.e.  10--8h9----8h9) for a while and then move it
back up two frets and so on.

I think that is about it.  I am not going to get into the really fast 
part at the end.  It's about 4 1/2 pages long and will take more time
then I have available.

If I messed something up email me directly so I can fix it and re-send
it.

If you want the solo or the fast part it would probably make more sense
just to go out and buy the book then to ask for it.

Comments or corrections about typos
email to cevasp@rpi.edu  


Subject:         guns n' roses tabs
   Date:         Sun, 26 Oct 1997 17:59:35 -0500



Paradise City
Guns N' Roses
Appetite for Destruction

Tabbed by:      Patrick Cevasco
                cevasp@rpi.edu

Tuned half step down

  Rhy. Fig. 1:
  G     C
|-3---3-----3-----3-------|---------3-----3-----3-------|
|-0-----0-----0-----0---0-|-1---------1-----1-----1---1-|
|-0-------0-----0-----0---|-0-----------0-----0-----0---|
|-0-----------------------|-0h2---2---------------------|
|-2-----------------------|-----3-----------------------|
|-3-----------------------|-----------------------------|

  Fadd9           C                 G
|--------3----------------3-------|---3----3-------------------|
|--1---1---1---1--1-----1---1---0-|-0--0-----0-----0---0-------|
|--0h2-------2----0-----------0---|-0----0-----0h2---0------0--|
|--0h3------------0h2-------------|-0--------------------0h2---|
|---------------------3-----------|-2--------------------------|
|---------------------------------|-3--------------------------|

  Rhy. Fig. 2:      P.M.--|                     P.M.---|
|-------------------------|----------------------------|
|-------------------------|-5--------------------------|
|---------------------5-5-|-5--------------------10-10-|
|-5-------------------5-5-|-5--------------------10-10-|
|-5-------------------3-3-|-3---------------------8--8-|
|-3-----------------------|----------------------------|

               P.M.--|      P.M.--|
|---------------------------------|----------------------------|
|-10-----------------5------------|----------------------------|
|-10-------------5-5-5------------|----------------------------|
|-10-------------5-5-5------------|-5--------------------------|
|--8-------------3-3-3------------|-5--------------------------|
|-----------------------------3-3-|-3--------------------------|

  Riff B
|--------------------------------------------|---------------------|
|----------------------15--------------------|---------------------|
|-------12-12--------------14fb-14fbr--12----|-----------%---------|
|-12h14---------14-12---------------------14-|---------------------|
|--------------------------------------------|---------------------|
|--------------------------------------------|---------------------|

  Riff B-1
|--------------------------------------------|---------------------|
|-13fb-----13fb-----13-----10fbr------8------|-10~~~~~-------------|
|-----------------------------------------9--|---------------------|
|--------------------------------------------|---------------------|
|--------------------------------------------|---------------------|
|--------------------------------------------|---------------------|

  Riff B-2     /--Hold Bend--\
|-------------|----15---------|--------------|---------------------|
|-13-------13fb--------13-----r------12h13---|-12~~~~~-------------|
|--------------------------------------------|---------------------|
|--------------------------------------------|---------------------|
|--------------------------------------------|---------------------|
|--------------------------------------------|---------------------|

  Riff C
 P.M.------------------------------------|
|--------------------------------------------|
|--------------------------------------------|
|---------------------------------------3----|
|------------------------------------5--3----|
|-5~--3---4--5~--3---4--5---3--5--3--5--1----|
|-3~--1---2--3~--1---2--3---1--3--1--3-------|

 P.M.-----------------------------------|
|--------------------------------------------|
|--------------------------------------------|
|------------------------------------5--3----|
|------------------------------------3--3----|
|-5~--3---4--5~--3---4--5---3--5--3--3--1----|
|-3~--1---2--3~--1---2--3---1--3--1----------|

 P.M.-----------------------------------|
|--------------------------------------------|
|--------------------------------------------|
|---------------------------------------3----|
|------------------------------------5--3----|
|-5~--3---4--5~--3---4--5---3--5--3--5--1----|
|-3~--1---2--3~--1---2--3---1--3--1--3-------|

  P.M.----------------------------------|
|--------------------------------------------|
|--------------------------------------------|
|-----------------------------------5---3----|
|--------------------------5---3----3---3----|
|-5~--3---4--5~---3---4----5---3----3---1----|
|-3~--1---2--3~---1---2----3---1-------------|

Rhy. Fig. 3 (w/ partial 1st verse for timing)

     P.M.--------------------------------------|
|-----------------------------------------------------|
|--------------------------------------------------3--|
|--------------------------------------------------3--|
|--------------------------------------------------3--|
|--------------------------------------------------1--|
|-3~---1---2---3---3---1---2---3---1---3---1---3------|
1.  Just...                                     I'm...

    P.M.-----------------------------|
|---------------------------------------------------|
|----------------------------------------5----3-----|
|----------------------------------------5----3-----|
|----------------------------------------5----3-----|
|----------------------------------------3----1-----|
|-3~---1---2--3--3--1--2--3--1--3---1---------------|
     hard...                               I'm  your...

     P.M.---------------------------------------|
|-----------------------------------------------------|
|--------------------------------------------------3--|
|--------------------------------------------------3--|
|--------------------------------------------------3--|
|--------------------------------------------------1--|
|-3~---1---2---3---3---1---2---3---1---3---1---3------|
   charity...                                 eat.

           P.M.-----|
|------------------------------------|--------------|
|--------------------------3---------|--------5-----|
|--------------------------3---------|--------5-----|
|--------------------------3---------|--------5-----|
|--------------------------1---------|--------3-----|
|-3~--------1---2---3----------------|--------------|
  pay  you....      another...              time.

|-----------------------------------------------------|
|-----------------------------------------------------|
|-----------------------------------------------------|
|-----------------------------------------------------|
|--3hb--------1---3---1-------------------------------|
|-------------------------1---3----------(3)/---------|
  Take...     the...       line.

O.K.
So the song goes like this:

(Rhy. Fig. 1) x 2

(Chorus w/Rhy. Fig. 1) x 2
Take me down to the paradise city,
where the grass is green and the girls are pretty.
Oh won't you please take me home.

(Rhy. Fig. 2) x 2

[Riff B then Riff B-1) w/Rhy. Fig. 2]
[Riff B then Riff B-2) w/Rhy. Fig. 2]

(Riff C)

(Verse 1 w/Rhy. Fig. 3)
Just an urchin livin' under the street.
I'm a ... hard case that's tough to beat.
I'm your charity case, so buy me something to eat.
I'll pay you at another time.

(Riff C)

(Verse 2 w/Rhy. Fig. 3)

(Chorus w/Rhy. Fig. 1) x 2

(Solo) 
solo:
e----------------------|-------------------|--------1----6-|-----------
b----------------------|-------------------|------3--/6----|-----------
g--------------3-------|-5fb--3-3---5fbr-3-|-5fb-----------|-5fb-(5)-r-
d-3--3fb--5~~~---5-3---|----------5--------|---------------|-----------
a--------------------5-|-------------------|---------------|-----------
e----------------------|-------------------|---------------|-----------

e-----5-----------|-----5-8------------------------|-----------------------------|
b-------/8------8-|-8fb-----r8--5-8-----5-8--------|-----------------------------|
g-3h4-------------|-----------------7fb-----r7-5---|-7-5-------------------------|
d-----------------|------------------------------7-|-----7-5---------------------|
a-----------------|--------------------------------|---------7-6-5-3-5fbr-3------|
e-----------------|--------------------------------|------------------------5~~~-|

e------3---|----|-------|---------------10----------10-
b-5hb---3--|----|-5--5--|-then:------------------------ 
g-5hb----3-|-%--|-5---5-|---------10h11-----12-10h11---etc.
d----------|-2x-|-------|------------------------------
a----------|----|-------|------------------------------
e----------|----|-------|------------------------------

Then comes this....

|--------10-----------10-------10-----------10------8----|
|--------------------------------------------------------|
|--10h11----12--10h11----10h11----12--10h11----8h9-------|
|--------------------------------------------------------|
|--------------------------------------------------------|
|--------------------------------------------------------|
  So  far                                   a - way.

After which slide each note on the G string (3rd from the bottom)
down two frets (i.e.  10--8h9----8h9) for a while and then move it
back up two frets and so on.

Notation:
h    = hammer on
p    = pull-off
fb   = full bend
fbr  = full bend and release
hb   = half bend
P.M. = palm mute
~    = vibrato
%    = repeat previous


Subject:         guns n' roses tabs
   Date:         Sun, 26 Oct 1997 17:59:35 -0500



Paradise City
Guns N' Roses
Appetite for Destruction

Tabbed by:      Patrick Cevasco
                cevasp@rpi.edu

Tuned half step down

  Rhy. Fig. 1:
  G     C
|-3---3-----3-----3-------|---------3-----3-----3-------|
|-0-----0-----0-----0---0-|-1---------1-----1-----1---1-|
|-0-------0-----0-----0---|-0-----------0-----0-----0---|
|-0-----------------------|-0h2---2---------------------|
|-2-----------------------|-----3-----------------------|
|-3-----------------------|-----------------------------|

  Fadd9           C                 G
|--------3----------------3-------|---3----3-------------------|
|--1---1---1---1--1-----1---1---0-|-0--0-----0-----0---0-------|
|--0h2-------2----0-----------0---|-0----0-----0h2---0------0--|
|--0h3------------0h2-------------|-0--------------------0h2---|
|---------------------3-----------|-2--------------------------|
|---------------------------------|-3--------------------------|

  Rhy. Fig. 2:      P.M.--|                     P.M.---|
|-------------------------|----------------------------|
|-------------------------|-5--------------------------|
|---------------------5-5-|-5--------------------10-10-|
|-5-------------------5-5-|-5--------------------10-10-|
|-5-------------------3-3-|-3---------------------8--8-|
|-3-----------------------|----------------------------|

               P.M.--|      P.M.--|
|---------------------------------|----------------------------|
|-10-----------------5------------|----------------------------|
|-10-------------5-5-5------------|----------------------------|
|-10-------------5-5-5------------|-5--------------------------|
|--8-------------3-3-3------------|-5--------------------------|
|-----------------------------3-3-|-3--------------------------|

  Riff B
|--------------------------------------------|---------------------|
|----------------------15--------------------|---------------------|
|-------12-12--------------14fb-14fbr--12----|-----------%---------|
|-12h14---------14-12---------------------14-|---------------------|
|--------------------------------------------|---------------------|
|--------------------------------------------|---------------------|

  Riff B-1
|--------------------------------------------|---------------------|
|-13fb-----13fb-----13-----10fbr------8------|-10~~~~~-------------|
|-----------------------------------------9--|---------------------|
|--------------------------------------------|---------------------|
|--------------------------------------------|---------------------|
|--------------------------------------------|---------------------|

  Riff B-2     /--Hold Bend--\
|-------------|----15---------|--------------|---------------------|
|-13-------13fb--------13-----r------12h13---|-12~~~~~-------------|
|--------------------------------------------|---------------------|
|--------------------------------------------|---------------------|
|--------------------------------------------|---------------------|
|--------------------------------------------|---------------------|

  Riff C
 P.M.------------------------------------|
|--------------------------------------------|
|--------------------------------------------|
|---------------------------------------3----|
|------------------------------------5--3----|
|-5~--3---4--5~--3---4--5---3--5--3--5--1----|
|-3~--1---2--3~--1---2--3---1--3--1--3-------|

 P.M.-----------------------------------|
|--------------------------------------------|
|--------------------------------------------|
|------------------------------------5--3----|
|------------------------------------3--3----|
|-5~--3---4--5~--3---4--5---3--5--3--3--1----|
|-3~--1---2--3~--1---2--3---1--3--1----------|

 P.M.-----------------------------------|
|--------------------------------------------|
|--------------------------------------------|
|---------------------------------------3----|
|------------------------------------5--3----|
|-5~--3---4--5~--3---4--5---3--5--3--5--1----|
|-3~--1---2--3~--1---2--3---1--3--1--3-------|

  P.M.----------------------------------|
|--------------------------------------------|
|--------------------------------------------|
|-----------------------------------5---3----|
|--------------------------5---3----3---3----|
|-5~--3---4--5~---3---4----5---3----3---1----|
|-3~--1---2--3~---1---2----3---1-------------|

Rhy. Fig. 3 (w/ partial 1st verse for timing)

     P.M.--------------------------------------|
|-----------------------------------------------------|
|--------------------------------------------------3--|
|--------------------------------------------------3--|
|--------------------------------------------------3--|
|--------------------------------------------------1--|
|-3~---1---2---3---3---1---2---3---1---3---1---3------|
1.  Just...                                     I'm...

    P.M.-----------------------------|
|---------------------------------------------------|
|----------------------------------------5----3-----|
|----------------------------------------5----3-----|
|----------------------------------------5----3-----|
|----------------------------------------3----1-----|
|-3~---1---2--3--3--1--2--3--1--3---1---------------|
     hard...                               I'm  your...

     P.M.---------------------------------------|
|-----------------------------------------------------|
|--------------------------------------------------3--|
|--------------------------------------------------3--|
|--------------------------------------------------3--|
|--------------------------------------------------1--|
|-3~---1---2---3---3---1---2---3---1---3---1---3------|
   charity...                                 eat.

           P.M.-----|
|------------------------------------|--------------|
|--------------------------3---------|--------5-----|
|--------------------------3---------|--------5-----|
|--------------------------3---------|--------5-----|
|--------------------------1---------|--------3-----|
|-3~--------1---2---3----------------|--------------|
  pay  you....      another...              time.

|-----------------------------------------------------|
|-----------------------------------------------------|
|-----------------------------------------------------|
|-----------------------------------------------------|
|--3hb--------1---3---1-------------------------------|
|-------------------------1---3----------(3)/---------|
  Take...     the...       line.

O.K.
So the song goes like this:

(Rhy. Fig. 1) x 2

(Chorus w/Rhy. Fig. 1) x 2
Take me down to the paradise city,
where the grass is green and the girls are pretty.
Oh won't you please take me home.

(Rhy. Fig. 2) x 2

[Riff B then Riff B-1) w/Rhy. Fig. 2]
[Riff B then Riff B-2) w/Rhy. Fig. 2]

(Riff C)

(Verse 1 w/Rhy. Fig. 3)
Just an urchin livin' under the street.
I'm a ... hard case that's tough to beat.
I'm your charity case, so buy me something to eat.
I'll pay you at another time.

(Riff C)

(Verse 2 w/Rhy. Fig. 3)

(Chorus w/Rhy. Fig. 1) x 2

(Solo) 
solo:
e----------------------|-------------------|--------1----6-|-----------
b----------------------|-------------------|------3--/6----|-----------
g--------------3-------|-5fb--3-3---5fbr-3-|-5fb-----------|-5fb-(5)-r-
d-3--3fb--5~~~---5-3---|----------5--------|---------------|-----------
a--------------------5-|-------------------|---------------|-----------
e----------------------|-------------------|---------------|-----------

e-----5-----------|-----5-8------------------------|-----------------------------|
b-------/8------8-|-8fb-----r8--5-8-----5-8--------|-----------------------------|
g-3h4-------------|-----------------7fb-----r7-5---|-7-5-------------------------|
d-----------------|------------------------------7-|-----7-5---------------------|
a-----------------|--------------------------------|---------7-6-5-3-5fbr-3------|
e-----------------|--------------------------------|------------------------5~~~-|

e------3---|----|-------|---------------10----------10-
b-5hb---3--|----|-5--5--|-then:------------------------ 
g-5hb----3-|-%--|-5---5-|---------10h11-----12-10h11---etc.
d----------|-2x-|-------|------------------------------
a----------|----|-------|------------------------------
e----------|----|-------|------------------------------

Then comes this....

|--------10-----------10-------10-----------10------8----|
|--------------------------------------------------------|
|--10h11----12--10h11----10h11----12--10h11----8h9-------|
|--------------------------------------------------------|
|--------------------------------------------------------|
|--------------------------------------------------------|
  So  far                                   a - way.

After which slide each note on the G string (3rd from the bottom)
down two frets (i.e.  10--8h9----8h9) for a while and then move it
back up two frets and so on.

Notation:
h    = hammer on
p    = pull-off
fb   = full bend
fbr  = full bend and release
hb   = half bend
P.M. = palm mute
~    = vibrato
%    = repeat previous



































variations - click chord images
Transpose chords:
Tuning:
Cool service:
View: Size:
A  A  A
Rating:
Layout:
  • Currently 0/5 Stars.
  • 1
  • 2
  • 3
  • 4
  • 5
 
Accuracy:
  • Currently 3/5 Stars.
  • 1
  • 2
  • 3
  • 4
  • 5
 
click stars to rate
Chordie recommends:
Learn to play songs at Jamplay.com with video guitar lessons
Songbook:
Login to add this song to your songbook
Support the artist
Preview/buy this song
MSN Music
Why this non-profit ad?

 
login to add comments/video/corrections