Guitar Tabs, Chords and Lyrics


oppresion   Ben Harper


D---------------------------------------------------







A--0-h-1----1-------0--------0-----1----------------







F--0-h-2----2-------0--------0-----2----------------


C--0-h-2----2---0-------0----------2----------------


G---------------------------------------------------


D---------------------------------------------------


D---------------------------------------------------


A--1----1-----------1-----0----0--------------------


F--0----0-----------0-----0----0--------------------


C--2----2-----------2-------------------------------


G--3----3-------3-----------------------------------


D-------------------------3----3--------------------


D-------------------------0-------------------------


A--3----3-----------3------------0------------------


F--2----2-----------2------------0------------------


C--0----0-------0-----------------------------------


G---------------------------------------------------


D-------------------------0------3------------------


D---------------------------------------------------


A-----------------------------------------------


F-----------------------------------------------


C-----------------------------------------------


G-----------------------------------------------


D-----------------------------------------------


Important: The song above is NOT stored on the Chordie server. The original song is hosted at tabfu.thudspace.net. Chordie works as a search engine and provides on-the-fly formatting. Chordie does not index songs against artists'/composers' will. To remove this song please click here.

This song is displayed as text-only. Transposing and tuning is only available for chordpro-songs.

Login - add to songbook

Rating click stars to rate

Layout
Accuracy

SHARE PAGE  




You need to log in to post comments