Guitar Tabs, Chords and Lyrics


radio  Heavy Vegetable



E--------------|--------------|
B--------0-----|----------0---|
G-----2--------|-------2------|
D--------------|--------------|
A--2--------2--|--2h4---------|
E--------------|--------------|
E--------------|---------------|-------------|-------------
B--------------|---------------|-------------|-------------
G---------0----|---------2-----|-------------|-0--------0--
D------2-------|------2-----0--|-----3-------|-------------
A---0--------0-|-0h2-----------|-------------|-------------
E--------------|---------------|--1-----1--3-|----3--4-----
E----X---|---X---|---X---|---X---|---X---|---X---
B----3---|---1---|---2---|---2---|---3---|---0---
G----2---|---0---|---2---|---1---|---2---|---0---
D----0---|---2---|---2---|---X---|---x---|---0---
A----0---|---3---|---0---|---0---|---1---|---2---
E----X---|---X---|---X---|---X---|---X---|---3---
[D5] They don't play slint on the radio
[C] they don't play sentridoh
[A] they don't play [D5] Zappa      (in between the A and D
[A] they don't play [D5] Beefhart    strum the open strings)
[Amaj7] they don't play [Bbmaj7] Can
[Amaj7] they don't play the [Bbmaj7] Residents
[C] they don't even [G] play
[C] the Velvet Under[G]ground
[C] Ronaldo and the [G] loaf or
[C] Bongos bass and [G] Bob

The end part is just a palm muted Bb5 power chord.


Back to index / h / heavy_vegetab


Important: The song above is NOT stored on the Chordie server. The original song is hosted at tabfu.thudspace.net. Chordie works as a search engine and provides on-the-fly formatting. Chordie does not index songs against artists'/composers' will. To remove this song please click here.

Text color:
Chord color:
Chord grids: 
Font size:    
Page size: 

A Amaj7 Bbmaj7 C D5 G
variations - click chord images

Login - add to songbook

Transpose chords

Tuning

Rating click stars to rate

Layout
Accuracy

SHARE PAGE  




You need to log in to post comments