Guitar Tabs, Chords and Lyrics


 Throw Your Arms Around Me  Â Hunter and Collectors


 Intro:

-----4---5p4-----------9----10p9-------------11----12p11-------
---5---5-----5------10---10------10-------12----12-------12----
-4-------------4--9-----------------9--11-------------------11-
---------------------------------------------------------------
---------------------------------------------------------------
---------------------------------------------------------------

-14-------12-------11-------
----12-------12-------12----
-------11-------11-------11-
----------------------------
----------------------------
----------------------------


[E]I will come for you at night[A]time
I will [E]raise you from your [B]sleep
I will [E]kiss you in four pla[A]ces
As I go [E]running along your [B]street

I will squeeze the life out of you
You will make me laugh and make me cry
And we will never forget it
You will make me call your name and
I'll shout it to the blue summer sky


And we may [E]never meet a[A]gain
So [E]shed your skin and lets get [B]started
And you will [E]thr[A]ow your [B]arms around me
Yeah, you will [E]thr[A]ow your [B]arms around me
 Intro


I dreamed of you at nighttime
And I watched you in your sleep
I met you in high places
I touched your head and touched your feet

So if you disappear out of view
You know i will never say goodbye
And though i try to forget it
You will make me call your name and
I'll shout it to the blue summer sky

 Chorus


~From: Ben Golding 



Back to index / h / hunter_and_collecto

Important: The song above is NOT stored on the Chordie server. The original song is hosted at tabfu.thudspace.net. Chordie works as a search engine and provides on-the-fly formatting. Chordie does not index songs against artists'/composers' will. To remove this song please click here.

Text color:
Chord color:
Chord grids: 
Font size:    
Page size: 

A B E
variations - click chord images

Login - add to songbook

Transpose chords

Tuning

Rating click stars to rate

Layout
Accuracy

SHARE PAGE  




You need to log in to post comments