dazed and confused

Led Zeppelin


Date: 26 Feb 93 02:17:51 GMT

                  

Dazed and confused
==================

The intro should be done using NATURAL HARMONICS like this..

|----12-----5----------------12------5--------------------------------------|
|-12------5---------------12-------5----------------------------------------|
|-------------12------------------------5-----------------------------------|
|---------------------------------------------------------------------------|
|---------------------------------------------------------------------------|
|---------------------------------------------------------------------------|
       ~~~~~~                   ~~~~~~

~ pretty wild vibrato - since this is a harmonic on an open string you need
  to use a vibrato arm (or if your guitar does not have one you can do this
  by applying pressure to the string above the nut - but this is harder
  to control)



Date: Fri, 28 Jul 1995 15:50:22 -0400
Subject: TAB: Dazed and Confused by Led Zeppelin

 Dazed and Confused by Jimmy Page
    Performed by Led Zeppelin on Led Zeppelin

    Ok, here's another nice number in E.  I've tried to
    make this one short and easy. It only includes the beginning
    of the bow and guitar solo, that should be enough to get you
    started. I didn't include the intro, since it's all ready in the
    archives. 
    
There are many variations to the main riff.  Just keep messing around
and you'll find something cool to do with it.

    Main Riff:               Chord Riff
                                       
E-|-------------------------------------------------|
B-|-------------------------------------------------|
G-|-------------------------------------------------|
D-|------------------------------9-9-9----7-9-------|
A-|-----10-9-8-7-----------------9-9-9-7-9----7-9---|
E-|-0-0---------0-10-9-8-7-------7-7-7--------------|


                                                                             
    First bit of bow solo
                                                     
E-|-------------------------------------------------|
B-|-------------------------------------------------|
G-|-------------------------------------------------|
D-|-------------------------------------------------|
A-|-------------------------------------------------|
E-|-3\0---3\0---3\0-----7/10----7/10----------------|


                                                                             
    First bit of solo
                                                         
E-|---------------------------------------------------------------------------
|
B-|----------------------------------------------15-14-12-10-8-7-5-8-7-3-2----
|
G-|-------------12-14-12----------------12-14-12---------------------------3/-
|
D-|-------12-14----------14-------12-14---------------------------------------
|
A-|-12-14-------------------12-14---------------------------------------------
|
E-|---------------------------------------------------------------------------
|


                                                                             
    Chords after solo
                                                         
E-|------------------------------|
B-|------------------------------|
G-|-9-9-9-9-7-----9-9-9-9-12-----|
D-|-9-9-9-9-7-7-7-9-9-9-9-12-----|
A-|-7-7-7-7-5-7-7-7-7-7-7-10-----|
E-|-----------5-5----------------|


                                                                             
    Coda                                                        Repeat
        
E-|------------------------------------------------------------------------|
B-|-----------------------------------------------------------------7p6p5--|
G-|--------------------------------------------------------0-0-0-0---------|
D-|-5-5-5-3-7-7-7-5-9-9-9-7-11-11-11-9-14-14-14-14-14-12-------------------|
A-|------------------------------------------------------------------------|
E-|-3-3-3-1-5-5-5-3-7-7-7-5--9--9--9-7-12-12-12-12-12-10-------------------|


                                                                             
       a few times, end with
                                                  
E-|---------------------------------|
B-|---------------------------------|
G-|-7-7-7---------------7-7-7-9-----|
D-|-7-7-7---------------7-7-7-9-----|
A-|-5-5-5---------------5-5-5-7-----|
E-|---------------------------0-----|
                                 
Ok, that should do, if you have any corrections or comments let me know.
Matt O'Donnell, grifterz@aol.com














































variations - click chord images
Transpose chords:
Tuning:
Cool service:
View: Size:
A  A  A
Rating:
Layout:
  • Currently 0/5 Stars.
  • 1
  • 2
  • 3
  • 4
  • 5
 
Accuracy:
  • Currently 0/5 Stars.
  • 1
  • 2
  • 3
  • 4
  • 5
 
click stars to rate
Chordie recommends:
Get acoustic guitar lessons and electric guitar lessons at JamPlay.com
Songbook:
Login to add this song to your songbook
Support the artist
Preview/buy this song
MSN Music
Why this non-profit ad?

 
login to add comments/video/corrections