since ive been loving you

Led Zeppelin


Received: from animal-farm.nevada.edu by redrock.nevada.edu (5.65c/M1.4)
with SMTP id ; Mon, 28 Jun 1993 18:40:18 -0700
Received: from post1.INRE.ASU.EDU by animal-farm.nevada.edu id ; Mon, 28 Jun 1993 18:40:17 -0700
Received: from ASUVM.INRE.ASU.EDU (MAILER@ASUACAD) by asu.edu (PMDF V4.2-12
 #2382) id ; Mon, 28 Jun 1993 18:40:13 MST
Received: from ASUACAD (AUDSM) by ASUVM.INRE.ASU.EDU (Mailer R2.10 ptf000) with
 BSMTP id 4577; Mon, 28 Jun 93 18:41:52 MST
Date: Mon, 28 Jun 1993 18:41:30 -0700 (MST)
From: Paul Zimmerman 
Subject: TAB: Since I've Been Loving You - Zeppelin
To: jamesb@animal-farm.nevada.edu
Message-Id: 
Content-Transfer-Encoding: 7BIT


SINCE I'VE BEEN LOVING YOU
Led Zeppelin


                (13)  ..  a ghost note, a continuation of a previously
                          played note into the current var.  I put

              /-3-\   ..  Notes directly under are triplets
                                                               Rest
So here it is:  (enjoy)                                        |
                                              /-3-\            V
||---|-8------|-8-|-11-10-8-10-11-|-10-8---10-8-----|--------|-------|
||-8-|---11-8-|---|---------------|------9------9-9-|-9-8----|-R-3-4-|
||---|--------|---|---------------|-----------------|-----10-|-------|
||---|--------|---|---------------|-----------------|--------|-------|
||---|--------|---|---------------|-----------------|--------|-------|
||---|--------|---|---------------|-----------------|--------|-------|

           /-3-\         /-3-\
||---------------|-----|-------------|---/3-|-3-3-|-(3)-------|
||-6-3-4---------|-----|-4-3---3-4-6-|-/----|-----|-----16-18-|
||-------5-3-----|---5-|-----5-------|------|-----|-----------|
||-----------5-3-|-----|-------------|------|-----|-----------|
||---------------|-6---|-------------|------|-----|-----------|
||---------------|-----|-------------|------|-----|-----------|

   /--3---\ /--3---\
||-15-------15----------------|----|---------------15-------------|
||----18-16----18-16-18-------|----|------18-16-18----18-16-18-17-|
||----------------------17-15-|-17-|-(17)-------------------------|
||----------------------------|----|------------------------------|
||----------------------------|----|------------------------------|
||----------------------------|----|------------------------------|


||---------|--------|-8-----------------------|---------|---------|
||------11-|-8----8-|---11-8------------------|-4-3-----|-4-3-----|
||-(17)----|---10---|--------11-10-8----10----|-----5-3-|-----5-3-|
||---------|--------|----------------10----10-|---------|---------|
||---------|--------|-------------------------|---------|---------|
||---------|--------|-------------------------|---------|---------|

                       /-3--\
||-----------|------------8-8-|-8-------------|-15----------15-15-|
||-----4-3---|-3-4-6-8-11-----|---------16-18-|----18-16-18-------|
||-(3)-----5-|----------------|---15-17-------|-------------------|
||-----------|----------------|---------------|-------------------|
||-----------|----------------|---------------|-------------------|
||-----------|----------------|---------------|-------------------|

  /-------6--------\
||-------------------------|------------------15-15-|-------|-------|
||-------------------------|------------15-18-------|-------|----16-|
||-15-------15-------------|---------15-------------|----15-|-17----|
||----17-15----17-15-17-17-|-(17)-17----------------|-18----|-------|
||-------------------------|------------------------|-------|-------|
||-------------------------|------------------------|-------|-------|


||----------|-15-15-|----15-|-------|
||----16----|-------|-18----|-16----|
||-17----15-|-------|-------|----17-|
||----------|-------|-------|-------|
||----------|-------|-------|-------|
||----------|-------|-------|-------|



Thanks to the original poster.


Peace,
Paul Z








































variations - click chord images
Transpose chords:
Tuning:
Cool service:
View: Size:
A  A  A
Rating:
Layout:
  • Currently 0/5 Stars.
  • 1
  • 2
  • 3
  • 4
  • 5
 
Accuracy:
  • Currently 2.7/5 Stars.
  • 1
  • 2
  • 3
  • 4
  • 5
 
click stars to rate
Chordie recommends:
Learn to play this song & others via video guitar lessons at JamPlay.com
Songbook:
Login to add this song to your songbook
Support the artist
Preview/buy this song
MSN Music
Why this non-profit ad?

 
login to add comments/video/corrections