""; ?> nail talk by Adrian Legg - guitar chords, guitar tabs and lyrics - chordie

nail talk

Adrian Legg






email:  bob.carter@clara.net

Tuning DADGBE, capo'd fret 2
p = pull off
h =hammer on 
s = slide

Notes:

This is all pretty straightforward, though you'll have to get the timing from the album and use your imagination in some places.  I'm not sure what the convention on this is but rather than keep on writing "2" all the time for an open string (the whole piece is capo'd on the second fret), I've just written "0".  But then all the other frets are written as normal, ie "4" is fret 4, 2 frets above the capo.  Hope this isn't too confusing.

Anyway, hope it's of some use.  If you have any problems I might be able to help, so email me.  

Nail Talk
=========

1.
E-|-7-----7-------7-9-----9-------9---|-0-----0-------0-12p11 11p9-9s7-|
B-|-----9-------9-------9-------9-----|-----0-------0------------------|
G-|---8-------8-------8-------8-------|---0-------0--------------------|
D-|---------0---------------0---------|---------0----------------------|
A-|-----------------------------------|--------------------------------|
D-|-0---------------0-----------------|-0----------------0-------------|


2.
E-|-7-----7-------7-9-----9-------9---|-0-----0-------0-16p12 12s7-7s9--|
B-|-----9-------9-------9-------9-----|-----0-------0-------------------|
G-|---8-------8-------8-------8-------|---0-------0---------------------|
D-|---------0---------------0---------|---------0-----------------------|
A-|-----------------------------------|---------------------------------|
D-|-0---------------0-----------------|-0----------------0--------------|


3.
E-|-7-----7-------7-9-----9-------9---|-5-----5-------5--7-----7-------7--|
B-|-----9-------9-------9-------9-----|-----7-------7--------7-------7----|
G-|---8-------8-------8-------8-------|---6-------6--------6-------6------|
D-|---------0---------------0---------|---------0----------------0--------|
A-|-----------------------------------|-----------------------------------|
D-|-0---------------0-----------------|-0----------------0----------------|



4.
E-|-0h4-4-0-4-0-4-0-9-7-|-0h4-4-0-4-0-7-5-4-0------|
B-|-0h4-4-0-4-0-4-0-9-7-|-0h4-4-0-4-0-7-5-4-0------|
G-|-0h4-4-0-4-0-4-0-9-8-|-0h4-4-0-4-0-8-6-4-0------|
D-|---------------------|--------------------------|
A-|-0-------0---0---0---|-0-------0---0---0--------|
D-|---------------------|----|---------------------|

5.
E-|-0h4-4-0-4-0-5-4-0------|------7-9-----|
B-|-0h4-4-0-4-0-5-4-0-5----|-9h10---------|
G-|-0h4-4-0-4-0-6-4-0-4----|--------------|
D-|-------------------6----|--------------|
A-|-0-------0---0---0---0--|--------------|
D-|------------------------|--------------|


6.
E-|-11----11------12----9------9--------9-|-----7-------9----5-----5-----12s|
B-|-----12------------------10-------10---|-----9-------9--------7----------|
G-|---11-------11---11----9--------9------|---8---8---8---8----6------------|
D-|---------0--------------------0--------|---------0-----------------0-----|
A-|---------------------------------------|---------------------------------|
D-|-0-------------------0-----------------|-0----------------0--------------|


7.
E-|-4-----4------4-------4--------5-|-------4-------4-----------------------|
B-|-----5-------5------5--------5---|-----5-------5--------7p5--------------|
G-|---4-------4------4--------4-----|---6-------6----------6----------------|
D-|---------0---------------0-------|---------6-----------------------------|
A-|---------------------------------|-4---------------4---------------------|
D-|-0--------------0----------------|---------------------------------------|


8.
E |-8------8---7--7-----7-------7--------7-9-|
B-|-----10------------9-------9----9-10------|
G-|---9-------------9-------9----------------|
D-|-0--------0----0-------0------0-----------|
A-|------------------------------------------|
D-|------------------------------------------|

9.
E-|-11----11------12----9------9--------9-|-----7-------9----5-----5-----12s|
B-|-----12------------------10-------10---|-----9-------9--------7----------|
G-|---11-------11---11----9--------9------|---8---8---8---8----6------------|
D-|---------0--------------------0--------|---------0-----------------0-----|
A-|---------------------------------------|---------------------------------|
D-|-0-------------------0-----------------|-0----------------0--------------|


10.
E-|-4-----4------4-------4--------5-|-0-----0-------0------------------------|
B-|-----5-------5------5--------5---|-----4-------4--------5p4---------------|
G-|---4-------4------4--------4-----|---0-------0----------0-----------------|
D-|---------0---------------0-------|---------4------------------------------|
A-|---------------------------------|-0---------------0----------------------|
D-|-0--------------0----------------|----------------------------------------|

11.
E-|---------------------------------|-----------------------------------------|
B-|-5-----5-------5-5-----5-------5-|-5-----5-------5-5-----5-------5---------|
G-|-----4-------4-------4-------4---|-----4-------4-------4-------4-----------|
D-|---0-------0-------0-------0-----|---0-------0-------0-------0-------------|
A-|---------------------------------|-----------------------------------------|
D-|-0-------0-------7-------7-------|-5-------5-------4-------4---------------|


12.
E-|--------------------|--------7---9---10---9---9---7------------------------|
B-|-4h5---7----9-10--9-|-9-9h10---9---9----9---9---9---9----------------------|
G-|---------------8----|------------------------------------------------------|
D-|-4-----7----9--9----|--------0----------------0----------------------------|
A-|-0---0----0----0----|------------------------------------------------------|
D-|--------------------|-0---------------0------------------------------------|


13.
E-|-9-----9-------9---------0-------0|-----0----5---9---9-----7----------------|
B-|-----0-------0---------0-------0--|----------------------7------10----------|
G-|---0-------0---------0-------0----|---0---0----0---0---8------8----8--------|
D-|---------0------------------------|-----------------------------------------|
A-|----------------------------------|------------------0-------0--------------|
D-|-7---------------7---------6------|-4--------4------------------------------|


14.
E-|-7-----7-------7----------7-|-7-----7-------7-----7---5--------------------|
B-|-----9-------9-------9-10---|-----5-------5---------------8----------------|
G-|---8-------8-------8--------|---7-------7-------7--------------------------|
D-|---------0------------------|---------5------------------------------------|
A-|----------------------------|----------------------------------------------|
D-|-0---------------0----------|-5---------------5----------------------------|


15.
E-|-----------------------------5---|--7-----7-------7----8---6---------------|
B-|-6p5---6-------6-----6---8-------|------6-------6--------------9-----------|
G-|-5-----5-----5-------------------|----8-------8------8---------------------|
D-|-7p5---7---7-------7-------------|----------6------------------------------|
A-|---------------------------------|-----------------------------------------|
D-|-5---5---5-------5---------------|--6--------------5-----------------------|



16.
E-|-----------------------------6---|-----------------------0-----------------|
B-|-7p6--7--------7-----7---9-------|-5-----5-------5---------5---------------|
G-|-6----6------6-------------------|-----4-------4-------4-------------------|
D-|-8p6--8----8-------8-------------|---5-------5-------5---------------------|
A-|---------------------------------|-4---------------4-----------------------|
D-|-6---6---6-------6---------------|---------0--------------0----------------|


17.
E-|------------------------0----|-----------------------0---------------------|
B-|-5-----5-------5-----------5-|-5-----5-------5-----------5-----------------|
G-|-----4-------4-------4-------|-----4-------4-------4-----------------------|
D-|---5-------5-------5---------|---5-------5-------5-------------------------|
A-|-3-------3-------3--------3--|-0-------0-------0-------0-------------------|
D-|-----------------------------|---------------------------------------------|


18.
E-|-----------------------0-----|---------------------0-4-5-------------------|
B-|-5-----5-------5-----------5-|-4-----4-------4-----------------------------|
G-|-----0-------0-------0-------|-----0-------0-------------------------------|
D-|---4-------4-------4---------|---4-------4-------4-------------------------|
A-|-0-------0-------0-------0---|-0-------0-------0---------------------------|
D-|-----------------------------|---------------------------------------------|


19.
E-|-0---------------0-----4-5s9-|-0-----0-------0-0-----0---------|-------------
B-|-------5-5---0-------0-------|-----5-------5-------4-------4h5-|------------
G-|-----0-------------0---------|---0-------0-------0-------0-----|------------
D-|---0-------0---0-------------|---------4---------------4-------|------------
A-|-----------------------------|-0---------------0---------------|------------
D-|-7-------7-------4-------4---|---------------------------------|-----------


20.
E-|---------------------------------|-----------------------------------------|
B-|-5-----5-------5-5-----5-------5-|-5-----5-------5-5-----5-------5---------|
G-|-----4-------4-------4-------4---|-----4-------4-------4-------4-----------|
D-|---0-------0-------0-------0-----|---0-------0-------0-------0-------------|
A-|---------------------------------|-----------------------------------------|
D-|-0-------0-------7-------7-------|-5-------5-------4-------4---------------|


21.
E-|--------------------|--------7-9-------------------------------------------|
B-|-4h5---7----9-10--9-|---9h10-----------------------------------------------|
G-|---------------8----|------------------------------------------------------|
D-|-4-----7----9--9----|------------------------------------------------------|
A-|-0---0----0----0----|------------------------------------------------------|
D-|--------------------|-0----------------------------------------------------|


22.
E-|-11----11------12----9------9--------9-|-----7-------9----5-----5-----12s|
B-|-----12------------------10-------10---|-----9-------9--------7----------|
G-|---11-------11---11----9--------9------|---8---8---8---8----6------------|
D-|---------0--------------------0--------|---------0-----------------0-----|
A-|---------------------------------------|---------------------------------|
D-|-0-------------------0-----------------|-0----------------0--------------|


23.
E-|-4-----4------4-------4--------5-|-------4-------4-----------------------|
B-|-----5-------5------5--------5---|-----5-------5--------7p5--------------|
G-|---4-------4------4--------4-----|---6-------6----------6----------------|
D-|---------0---------------0-------|---------6-----------------------------|
A-|---------------------------------|-4---------------4---------------------|
D-|-0--------------0----------------|---------------------------------------|


24.
E |-8------8---7--7-----7-------7--------7-9|
B-|-----10------------9-------9----9-10-----|
G-|---9-------------9-------9---------------|
D-|-0--------0----0-------0------0----------|
A-|-----------------------------------------|
D-|-----------------------------------------|


25.
E-|-11----11------12----9------9--------9-|-----7-------9----5-----5-----12s|
B-|-----12------------------10-------10---|-----9-------9--------7----------|
G-|---11-------11---11----9--------9------|---8---8---8---8----6------------|
D-|---------0--------------------0--------|---------0-----------------0-----|
A-|---------------------------------------|---------------------------------|
D-|-0-------------------0-----------------|-0----------------0--------------|


26.
E-|-4-----4------4-------4--------5-|-0-----0-------0------------------------|
B-|-----5-------5------5--------5---|-----4-------4--------5p4---------------|
G-|---4-------4------4--------4-----|---0-------0----------0-----------------|
D-|---------0---------------0-------|---------4------------------------------|
A-|---------------------------------|-0---------------0----------------------|
D-|-0--------------0----------------|----------------------------------------|


27.
E-|----------------------------------|----------------------------------------|
B-|-5------5--------5-5-----5-------5|5-----5-------5---5-----5---4h5---------|
G-|------4--------4-------4-------4--|----0-------0-----4-----4---4-----------|
D-|----0--------0-------0-------0----|--0-------0-------7-----7---4-----------|
A-|----------------------------------|----------------0---0-0-----------------|
D-|-0---------0-------4-------4------|7-------7-------------------------------|


28.
E-|-----------0---------------0-------|---------0------0--7-----4-0-----0-----|
B-|-5------5------5---5-----5-----5---|-5-----5------5--------5-------5-------|
G-|------0------0---0-----0-----0---0-|-----0------0--------0-------0---------|
D-|----6----------------6-------------|---6-----------------------------------|
A-|-----------------------------------|-------------------0-------0-----------|
D-|-0---------0-------4-------4-------|-7-------7-----------------------------|


29.
E-|-4-----4-------4-5-----5-------5-|-9------9--------9--9-----9--7-----------|
B-|-----5-------5-------5-------5---|-----10-------10---10----10--7-----------|
G-|---4-------4-------0-------0-----|---0--------0-------9-----9--8-----------|
D-|---------0---------------0-------|----------0------------------------------|
A-|---------------------------------|--------------------0-0-0----------------|
D-|-0---------------0---------------|-0---------------------------------------|


30.
E-|-4-----4-------4-5-----5-------5-|-9------9--------9--9-----9--7-----------|
B-|-----5-------5-------5-------5---|-----10-------10---10----10--7-----------|
G-|---4-------4-------0-------0-----|---0--------0-------9-----9--8-----------|
D-|---------0---------------0-------|----------0------------------------------|
A-|---------------------------------|--------------------0-0-0----------------|
D-|-0---------------0---------------|-0---------------------------------------|


31.
E-|-4-----4-------4-5-----5-------5-|-9------9--------9-8------8--------8-----|
B-|-----5-------5-------5-------5---|-----10-------10-------10-------10-------|
G-|---4-------4-------0-------0-----|---0--------0--------0--------0----------|
D-|---------0---------------0-------|----------0-----------------0------------|
A-|---------------------------------|-----------------------------------------|
D-|-0---------------0---------------|-0-----------------0---------------------|


32.
E-|-7-----7-------7-------7-------7-|--------7--------7------7-------9--------|
B-|-----7-------7-------7-------7---|------7--------7------7-------7----------|
G-|---8-------8-------9-------9-----|---10-------10------8-------8------------|
D-|---------9-------9-------9-------|----------7------------------------------|
A-|-0-------------------------------|-0-----------------0------0--------------|
D-|---------------------------------|-----------------------------------------|
slow down.........

33.
E-|-7h9--11s12-11--7--4-------------------------------------------------------|
B-|-9----12----12--9--5-------------------------------------------------------|
G-|-8----13----13--8--4-------------------------------------------------------|
D-|---------------------------------------------------------------------------|
A-|---------------------------------------------------------------------------|
D-|-0----0-----0---0--0-------------------------------------------------------|


ends








































variations - click chord images
Transpose chords:
Tuning:
Cool service:
View: Size:
A  A  A
Rating:
Layout:
  • Currently 0/5 Stars.
  • 1
  • 2
  • 3
  • 4
  • 5
 
Accuracy:
  • Currently 3.9/5 Stars.
  • 1
  • 2
  • 3
  • 4
  • 5
 
click stars to rate
Chordie recommends:
Check out JamPlay.com for online video guitar lessons
Songbook:
Login to add this song to your songbook
Support the artist
Preview/buy this song
MSN Music
Why this non-profit ad?

 
login to add comments/video/corrections