Guitar Tabs, Chords and Lyrics


down about it   Lemonheads
















"Down about it"


 Intro:  D  | E(high) | B  | A  | G  | F# | E  | A

 Verse:  D  | E(high) | B  | A  | G  | F# | E  | E

         D  | E(high) | B  | A  | G  | F# | E  | A

 Refrain:  G | A  (a couple of times)

 In the last refrain there is a bridge which goes E | A | E | A

 A:00220x  C:00553x   D:00775x   E:000220   F#:000442   G:000553
 A:000775  B:00442x   E(high):00997x  G(high):0 0 12 12 10

----
"Down About It"


Down about it is played with a capo at the 2nd fret but it is played 
without it on the 
"it's about time single". It's sounds better without the capo if you 
are playing it solo on the acoustic.

The tabs and chords are relative to the capo. i'm not going to show the 
strumming, just the chords.

intro

 C    Em   Am   ?    F   Em   Dm   G
-0----0----0----0----1----0----1---3----------------------------------
-1----0----1----0----1----0----3---0----------------------------------
-0----0----2----0----2----0----2---0----------------------------------
-2----2----2----0----3----2----0---0----------------------------------
-3----2----0----x----3----2----x---2----------------------------------
-x----0----x----3----1----0----x---3----------------------------------

VERSES

C - Em - Am - ? - F - Em - Dm
C - Em - Am - ? - F - Em - Dm - G

CHORUS
                                                 Dm    C
-0---0-------------------------------------------1-----0-----------------
-1---0-------------------------------------------3-----1-----------------
-0---0-------------------------------------------2-----0-----------------
-3---0-------------------------------------------0-----2-----------------
-3---x-------------------------------------------x-----3-----------------
-x---3-------------------------------------------x-----x-----------------

 play that several times then after the second verse








Important: The song above is NOT stored on the Chordie server. The original song is hosted at tabfu.thudspace.net. Chordie works as a search engine and provides on-the-fly formatting. Chordie does not index songs against artists'/composers' will. To remove this song please click here.

This song is displayed as text-only. Transposing and tuning is only available for chordpro-songs.

Login - add to songbook

Rating click stars to rate

Layout
Accuracy

SHARE PAGE  




You need to log in to post comments