the day i met you

Lillian Axe


Received: from animal-farm.nevada.edu by redrock.nevada.edu (5.65c/M1.4)
with SMTP id ; Tue, 9 Nov 1993 07:33:09 -0800
Received: from bosoleil.ci.umoncton.ca by animal-farm.nevada.edu id ; Tue, 9 Nov 1993 07:32:57 -0800
Received: by bosoleil.ci.umoncton.ca
(1.37.109.4/16.2) id AA19303; Tue, 9 Nov 93 11:33:22 -0400
Date: Tue, 9 Nov 1993 11:22:16 +0400 (AST)
From: Denis Jacob 
Subject: TAB for "The Day I Met You" by Lillian Axe
To: jamesb@animal-farm.nevada.edu
Message-Id: 
Mime-Version: 1.0
Content-Type: TEXT/PLAIN; charset=US-ASCII

I figured it was about time a Lillian.Axe directory was created so I made
the TAB for the song "The Day I Met You" from the album
Psychoschizophrenia. I hope it makes somebody go out and discover the
wonderful music that Lillian Axe makes.

               THE DAY I MET YOU
               (Stevie Blaze)

Intro:
-----------------------------------
------3-------3-------3-------3----
----0---0---0---0---0---0---0---0--
--5-------5-------5-------5--------
-----------------------------------
-----------------------------------

1st verse
      Do you remember                    when our lives were so complete?
------------------------------------------0---------------0--------
------3-------3-------3-------3-------1-----1---------3-----3---3--
----0---0---0---0---0---0---0---0---0---0-----0-----2---2-----2----
--5-------4-------2-------0---------------------2-0----------------
----------------------------------3--------------------------------
-------------------------------------------------------------------

      Long, cold Decembers             so bittersweet
------------------------------------------0---------------0--------
------3-------3-------3-------3-------1-----1---------3-----3---3--
----0---0---0---0---0---0---0---0---0---0-----0-----2---2-----2----
--5-------4-------2-------0---------------------2-0----------------
----------------------------------3--------------------------------
-------------------------------------------------------------------

1st chorus
But if I could set aside one day that I could hold forever
----------7---------------0-----------------0----------------------
------------8---------4-----4---------1---3---3-------3-------0----
--------9-----9-----4---4-----4-----0---0---------------0-------0--
------9---------9\--------------4---------------0---0--------------
----7-------------2---------------3-------------------------0------
--0-----------------------------------------------3-------2--------

I would save the day that I met you
----------0-------------------0------------------------------------
------------0---------1---------3-----3-------3-------3-------3----
--------0-----0-----0---0---2-------0---0---0---0---0---0---0---0--
------2---------2---------0-------5-------5-------5-------5--------
----2-------------3------------------------------------------------
--0----------------------------------------------------------------

2nd verse
Is it still magic                although we've grown worlds apart?
------------------------------------------0---------------0--------
------3-------3-------3-------3-------1-----1---------3-----3---3--
----0---0---0---0---0---0---0---0---0---0-----0-----2---2-----2----
--5-------4-------2-------0---------------------2-0----------------
----------------------------------3--------------------------------
-------------------------------------------------------------------

It seems so tragic                     so frail the heart
------------------------------------------0---------------0--------
------3-------3-------3-------3-------1-----1---------3-----3---3--
----0---0---0---0---0---0---0---0---0---0-----0-----2---2-----2----
--5-------4-------2-------0---------------------2-0----------------
----------------------------------3--------------------------------
-------------------------------------------------------------------

2nd chorus
But if I was blessed with just one wish to take me through my lonely
----------7---------------0-----------------0----------------------
------------8---------4-----4---------1---3---3-------3-------0----
--------9-----9-----4---4-----4-----0---0---------------0-------0--
------9---------9\--------------4---------------0---0--------------
----7-------------2---------------3-------------------------0------
--0-----------------------------------------------3-------2--------

life, I'd wish to go back to the day that I met you
----------0---------------0---------------0--------
------------0---------1-----1---------3-----3---3--
--------0-----0-----0---0-----0-----2---2-----2----
------2---------2---------------2-0----------------
----2-------------3--------------------------------
--0------------------------------------------------

-----------------------------------
------3-------3-------3-------3----
----0---0---0---0---0---0---0---0--
--5-------5-------5-------5--------
-----------------------------------
-----------------------------------

Bridge
And when you feel you're on your own, well, just believe you're not alone
----------0---------------0---------------------------------0------
------1-----1---------3-----3-------------3-----------1---3---3-1--
--------2-----2-----2---2-----2---------0---0-------0---0----------
----2-----------2-0-------------0-----0-------0--------------------
--0---------------------------------2-----------2-3----------------
----------------------------------3--------------------------------

And you'll feel the warmth that we shared years ago. Don't be
--------------------------0---------------0---------------0--------
------3-------0-------------0---------1-----1---------3-----3---3--
--------0-------0-------0-----0-----0---0-----0-----2---2-----2----
----0-----------------2---------2---------------2-0----------------
------------0-------2-------------3--------------------------------
--3-------2-------0------------------------------------------------

blue
-------------------------------------------------------------------
------3-------3-------3-------3-------3-------3-------3-------3----
----0---0---0---0---0---0---0---0---0---0---0---0---0---0---0---0--
--5-------5-------4-------4-------2-------2-------4-------4--------
-------------------------------------------------------------------
-------------------------------------------------------------------

-------------------------------------------------------------------
------3-------3-------3-------3-------3-------3-------3-------3----
----0---0---0---0---0---0---0---0---0---0---0---0---0---0---0---0--
--5-------5-------4-------4-------2-------2-------0-------0--------
-------------------------------------------------------------------
-------------------------------------------------------------------

3rd verse
One painful morning,                    I stared straight into the sun
------------------------------------------0---------------0--------
------3-------3-------3-------3-------1-----1---------3-----3---3--
----0---0---0---0---0---0---0---0---0---0-----0-----2---2-----2----
--5-------4-------2-------0---------------------2-0----------------
----------------------------------3--------------------------------
-------------------------------------------------------------------

It overwhelmed me,                      I came undone
------------------------------------------0---------------0--------
------3-------3-------3-------3-------1-----1---------3-----3---3--
----0---0---0---0---0---0---0---0---0---0-----0-----2---2-----2----
--5-------4-------2-------0---------------------2-0----------------
----------------------------------3--------------------------------
-------------------------------------------------------------------

So if you can find it in your heart to be forgiving to a broken man
----------7---------------0-----------------0----------------------
------------8---------4-----4---------1---3---3-------3-------0----
--------9-----9-----4---4-----4-----0---0---------------0-------0--
------9---------9\--------------4---------------0---0--------------
----7-------------2---------------3-------------------------0------
--0-----------------------------------------------3-------2--------

We'll go back to the day that I met you
----------0---------------0---------------0--------
------------0---------1-----1---------3-----3------
--------0-----0-----0---0-----0-----2---2-----2----
------2---------2---------------2-0-------------0--
----2-------------3--------------------------------
--0------------------------------------------------

-----------------------------------
------3-------3-------3-------3----
----0---0---0---0---0---0---0---0--
--5-------5-------4-------4--------
-----------------------------------
-----------------------------------

But if I was blessed with just one wish to take me through my lonely
----------7---------------0-----------------0----------------------
------------8---------4-----4---------1---3---3-------3-------0----
--------9-----9-----4---4-----4-----0---0---------------0-------0--
------9---------9\--------------4---------------0---0--------------
----7-------------2---------------3-------------------------0------
--0-----------------------------------------------3-------2--------

life, I'd wish to go back to the day that I met
----------0---------------0-------0--
------------0---------1-----1-----3--
--------0-------0---0---0-----0---2--
------2-------2-----------------2-0--
----2-------------3------------------
--0----------------------------------

you
-------------------------------------------------------------------
------3-------3-------3-------3-------3-------3-------3-------3----
----0---0---0---0---0---0---0---0---0---0---0---0---0---0---0---0--
--5-------5-------4-------4-------2-------2-------4-------4--------
-------------------------------------------------------------------
-------------------------------------------------------------------

------------------------------------------------------------------7--
------3-------3-------3-------3-------3-------3-------3-------3---8--
----0---0---0---0---0---0---0---0---0---0---0---0---0---0---0---0-7--
--5-------5-------4-------4-------2-------2-------4-------4-------5--
---------------------------------------------------------------------
---------------------------------------------------------------------
                                                 slow down

This is a beautiful and simple song that has only one voice and one
acoustic guitar. I hope somebody can get something out of this transcription

P.S. Anybody with info, tabs, lyrics, etc... on Lillian Axe, drop me a
line. Or anybody who just wants to chat about the band (or any other great 
rock band) your comments will always be welcome.

e-mail address:
Denis Jacob 

Anything on this great group will be appreciated!!!

                         Keep the rock rolling,
                                             Chuck











































variations - click chord images
Transpose chords:
Tuning:
Cool service:
View: Size:
A  A  A
Rating:
Layout:
  • Currently 0/5 Stars.
  • 1
  • 2
  • 3
  • 4
  • 5
 
Accuracy:
  • Currently 2.5/5 Stars.
  • 1
  • 2
  • 3
  • 4
  • 5
 
click stars to rate
Chordie recommends:
Get acoustic guitar lessons and electric guitar lessons at JamPlay.com
Songbook:
Login to add this song to your songbook
Support the artist
Preview/buy this song
MSN Music
Why this non-profit ad?

 
login to add comments/video/corrections