lakinis juice

Live



Lakini's Juice

Live

"dropped D" tuning

verse

   D5 F#5       D5 F#5      D5 F#5      D5 F#5D5 D5(2)
e:-------x--x---------x--x--------x--x-------------|
b:-------x--x---------x--x--------x--x-------------|
g:-----------------------------------------------7-|
d:-0--4---------0--4--------0--4--------0--4--0--7-|
A:-0--4---------0--4--------0--4--------0--4--0--5-|
D:-0--4---------0--4--------0--4--------0--4--0----|

prechorus

   A     A#    C     A#
e:------------------------|
b:------------------------|
g:----6-----7-----9-----7-|
d:---7-----8-----10----8--|
A:--7-----8-----10----8---|
D:-7-----8-----10----8----|

chorus (the bass plays the high to low part, may be
        wrong chords all together)

   D5       D5 D#5
e:------------------------|
b:------------------------|
g:-7--7--7----------------|
d:-7--7--7--0--1--1--1--1-|
A:-5--5--5--0--1--1--1--1-|
D:----------0--1--1--1--1-|

interlude/chorus

   D           D#
e:-------2-----------3----|
b:----3-----------4-----4-|
g:-2--------2--3----------|
d:------------------------|
A:------------------------|
D:------------------------|

By Mike DuFrene

Date: Sat, 29 Mar 1997 19:53:26 -0800
From: Denis Fitzpatrick 
To: guitar@olga.net
Subject: Lakini's Juice by Live

I would like to make a correction on this TAB:
Live-Lakini's Juice Correction
[{{{Live Lakini's Juice
Tuning (low to high)-C# G# C# F# A# D#
Basically tune the guitar down half a step
then tune to dropped-D (low E tuned down another
full step.)

Verse Riff: Distortion:
|-------------------------------|
|-------------------------------|
|-------------------------------|
|0-4-xxx-0-4-xxx-0-4-xxx-0-4-0-7|
|0-4-xxx-0-4-xxx-0-4-xxx-0-4-0-7|
|0-4-xxx-0-4-xxx-0-4-xxx-0-4-0-7|

The chorus is played a little different.
I'm not sure what the order is but he plays the
same 2 strings on the 8th fret, open, and on the 5th fret.}}}]

The First riff is played:
|-------------------------------|
|-------------------------------|
|-------------------------------|
|0-4--xx-0-4--xx-0-4--xx-0-4-0-7|
|0-4--xx-0-4--xx-0-4--xx-0-4-0-7|
|0-4--xx-0-4--xx-0-4--xx-0-4-0-7|

Every time I played it I would play it the
first way but then I heard it on the radio
again and they play it the second way.


Transcribed by Denis Hammerstedt
Tabbed by Neil Fitzpatrick
fitzpatr@mb.sympatico.ca

Please update the tablature.

Date: Sun, 27 Apr 1997 08:56:07 -0500
From: Lambert 
To: guitar@olga.net
Subject: Lakini's Juice

This is the tab for Lakini's Juice, the first single from Live's Secret
Samadhi album. Words by Edward Kawalczik Music by Live.
 
Tuning: Open D Minor 1/2 step down (C#-G#-C#-E-G#-C#)
Riff A-played for most of the song, the guitarist uses a Fuzz Face and
some weird EQ effect.  I find the effect can be simulated by these
settings: bass-10 mid-0 high-3. Anyway, here's the riff

|--------------------------------------|
|--------------------------------------|
|--------------------------------------|
|-0-4-XXX--0-4-XXX--0-4-XXX--0-4-0--7b-|
|-0-4-XXX--0-4-XXX--0-4-XXX--0-4-0--7b-|
|-0-4-XXX--0-4-XXX--0-4-XXX--0-4-0-(0)-|

Riff B-Chorus ("let me ride...")

|----------------------------|
|----------------------------|
|----------------------------|
|-4-4-44-4-7-7--4-4-44-4-0-0-|
|-4-4-44-4-7-7--4-4-44-4-0-0-|
|-4-4-44-4-7-7--4-4-44-4-0-0-|

that's the song!! give me a little more time and I'll figure out the
string parts

Send all praise, bomb threats, money, fan mail, hate mail, etc. to
alambert@nr.infi.net
>Artist:   +LIVE+
>Song:  Lakini's Juice
>Record: Secret Samadhi
>tabbed by: Rich Martyniuk at:  Gizzard8@aol.com

Tuning:  Down half-step with top string tuned down to a C#  
(DADGBA tuning but half step down)

Intro
  ...It was an evening I shared with the sun...  
|---------------------------------------------------|
|---------------------------------------------------|
|-----------------------------------------H--H------| REPEAT
|--0--4-XXX--0--4-XXX--0--4-XXX--0--4--0--6--7--6---|   A
|--0--4-XXX--0--4-XXX--0--4-XXX--0--4--0--6--7--6---|  LOT
|--0--4-XXX--0--4-XXX--0--4-XXX--0--4--0--6--7--6---| 
                                              

Figure 2:

          ..Slow Down....We're to afraid ...       
|-------------------------------------------------------|
|-------------------------------------------------------|
|----------66666--7---------------66666--7--------------|
|-4--5-----44444--5----44444--5---44444--5--------------|
|-4--5-----44444--5----44444--5---44444--5--------------|
|-4--5-----44444--5----44444--5---44444--5--------------|

Figure 3:

  .....Let me ride...Let me ride...Burn my I eyes....
|-----------------------------------------------------|
|-----------------------------------------------------|
|-----------------------------------------------------| REPEAT
|--7--4--77/--88888-----------------------------------|   A
|--7--4--77/--88888-----------------------------------|  LOT
|--7--4--77/--88888-----------------------------------|
 
 
ENDING RIFF

|-----------------------------|
|-----------------------------|
|------7---------10-----------|  REPEAT
|----7---7//---8----8---------|
|---------//-----------8------|
|--7---------8----------------|

   THAT'S PRETTY MUCH THE WHOLE SONG
   ANY QUESTIONS OR COMMENTS, THAN E-MAIL ME AT  GIZZARD8@AOL.COM        
   




                             Likini's Juice
                As Recorded on Live's "Secret Samadhi."
Originally Transcribed By: Steve Amend. Re-Transcribed and Posted By: Rob Subject.


    Figure 1.-Play 10x                                                  
E---|--------x--x--------x--x--------x--x---------------|---------------
B---|--------x--x--------x--x--------x--x---------------|---------------
G---|--------x--x--------x--x--------x--x---------------|---------------
D---|--------x--x--------x--x--------x--x---------------|---------------
A---|--0--2--x--x--0--2--x--x--0--2--x--x--0--2--0--5^--|---------------
E---|--0--2--x--x--0--2--x--x--0--2--x--x--0--2--0--5---|---------------
                                                                        

    Figure 2.-Play 2x       Figure 1.-Play 8x, Figure 2.-Play 2x        
E---|--------------|-----------------------------------------------|----
B---|--------------|-----------------------------------------------|----
G---|--------------|-----------------------------------------------|----
D---|-----5--------|-----------------------------------------------|----
A---|--2--3--2--3--|-----------------------------------------------|----
E---|--2-----2--3--|-----------------------------------------------|----
                                                                        

    Figure 3.-Play 8x                                                   
E---|--------2--2--2--2--|----------------------------------------------
B---|--------2--2--2--2--|----------------------------------------------
G---|--------2--2--2--2--|----------------------------------------------
D---|--5--5--2--2--2--2--|----------------------------------------------
A---|--3--3--------------|----------------------------------------------
E---|--------------------|----------------------------------------------
                                                                        

       Play-Figure 1.-8x,Figure 2.-2x            Play-Figure 3.-24x     
E---------------------------------------------|--|-----------------|----
B---------------------------------------------|--|-----------------|----
G---------------------------------------------|--|-----------------|----
D---------------------------------------------|--|-----------------|----
A---------------------------------------------|--|-----------------|----
E---------------------------------------------|--|-----------------|----
                                                                        

                And Fade Out With........                               
E---------------------------------------------------------||------------
B---------------------------------------------------------||------------
G---------------------------------------------------------||------------
D------------------------------------------------------5--||------------
A------------------------------------------------------3--||------------
E---------------------------------------------------------||------------
                                                                        



========================================================================
==                       TABLATURE EXPLANATION                        ==
========================================================================

----------                ----------                ----t---
----5h8--- Hammeron       ----(8)--- Ghost          ----6--- Tap
----------                ---------- Note           --------
----5p8--- Pulloff        ----------                --------

----------                ----------                -----p--
----5/8--- Slide Up       -----x---- Dead           -----7-- Pop
----------                ---------- Note           --s-----
----5\8--- Slide Down     ----------                --5----- Slap 

----------                ||------|| Repeat         --------
----5~~~-- Vibrato        ||*----*||                ---5^--- Bend
----------                ||*----*||                --------
----------                ||------||                --------

----------                ----------                --------
-4:------- Time           ----------                --------
-4:------- Signature      ----------                --------
----------                ----------                --------

Rhythm:
  w = whole note            W = dotted whole
  h = half note             H = dotted half
  q = quarter note          Q = dotted quarter
  e = eighth note           E = dotted eighth
  s = sixteenth note        S = dotted sixteenth
  t = 32nd note             T = dotted 32nd
  x = 64th note             X = dotted 64th
  ^ = triplet

========================================================================
==            Created with a demo version of BUCKET O' TAB            ==
==              tablature creation software for Windows               ==
==                  For more info email gse@his.com                   ==
========================================================================

Date: Fri, 11 Apr 1997 18:50:05 +1100
From: Tim Hardaker 
To: guitar@olga.net
Subject: TAB: Lakini's Juice by Live

LIVE

LAKINI'S JUICE


Transcribed By Tim Hardaker

i really like this song and think it has a good crunching riff. i'm not
sure what pedal the guitarist uses but with heavy distortion it sounds
ok. i think it is about right, if it's not....... e mail me.

it's a simple verse, pre chorus, chorus type of song.

low e is tuned to a d

e-|------------------------------------- 
b-|------------------------------------- 
g-|------------------------------------- this is played 
d-|-0-3-3-3-0-3-3-3--0-3-3-3--0-3-0-3-6-    10 times
a-|-0-3-3-3-0-3-3-3--0-3-3-3--0-3-0-3-6-
d-|-0-3-3-3-0-3-3-3--0-3-3-3--0-3-0-3-6-

e-|---------------------------------
b-|---------------------------------
g-|---------------------------------  then this is 
d-|--------------------------------- played 2 times
a-|-3-3-3-3-4-4-4-4-5-5-5-5-6-6-6-6-
e-|-3-3-3-3-4-4-4-4-5-5-5-5-6-6-6-6-

e-|------------------------------------- 
b-|------------------------------------- 
g-|------------------------------------- this is played 
d-|-0-3-3-3-0-3-3-3--0-3-3-3--0-3-0-3-6-    8 times
a-|-0-3-3-3-0-3-3-3--0-3-3-3--0-3-0-3-6-
d-|-0-3-3-3-0-3-3-3--0-3-3-3--0-3-0-3-6-

e-|---------------------------------
b-|---------------------------------
g-|---------------------------------  then this is 
d-|--------------------------------- played 2 times
a-|-3-3-3-3-4-4-4-4-5-5-5-5-6-6-6-6-
e-|-3-3-3-3-4-4-4-4-5-5-5-5-6-6-6-6-

e-|-----------------------------
b-|-----------------------------
g-|-----------------------------  then the chorus
d-|-0-0-0-7-7-7-7-0-0-0-5-5-5-5- is played 4 times
a-|-0-0-0-7-7-7-7-0-0-0-5-5-5-5-
e-|-0-0-0-7-7-7-7-0-0-0-5-5-5-5-

e-|------------------------------------- 
b-|------------------------------------- 
g-|------------------------------------- this is played 
d-|-0-3-3-3-0-3-3-3--0-3-3-3--0-3-0-3-6-    6 times
a-|-0-3-3-3-0-3-3-3--0-3-3-3--0-3-0-3-6-
d-|-0-3-3-3-0-3-3-3--0-3-3-3--0-3-0-3-6-

e-|---------------------------------
b-|---------------------------------
g-|---------------------------------  then this is 
d-|--------------------------------- played 2 times
a-|-3-3-3-3-4-4-4-4-5-5-5-5-6-6-6-6-
e-|-3-3-3-3-4-4-4-4-5-5-5-5-6-6-6-6-

e-|-----------------------------
b-|-----------------------------
g-|----------------------------- then the chorus is played
d-|-0-0-0-7-7-7-7-0-0-0-5-5-5-5- over and over til the end
a-|-0-0-0-7-7-7-7-0-0-0-5-5-5-5-
e-|-0-0-0-7-7-7-7-0-0-0-5-5-5-5-

e-|-----------------
b-|-----------------    a second guitar
g-|----------------- comes in after a while  
d-|-----5-----7---7-   and plays this til
a-|---5-----7---7---     the end also
e-|-5-----7---------

as i said before, if it's wrong e mail me with the corrections, my
guitar could be out of tune since i don't have a tuner.




"Lakini Juice" by Live
On the new album, Secret Samadhi

This is the main song from Live's latest album.  The album's really good, 
but it's something that definitely grows on you as you listen to it.

Transcribed by spider@olemiss.edu

This one's a little different.  To the best of my knowledge, they 
tune a 1 and 1/2 steps down to obtain that really deep sound, i.e.,

e -> db (c#)
B -> Ab (G#)
G -> Fb (E)
D -> Cb (B)
A -> Gb (F#)
E -> Db (C#)

So, in other words, an E5 is really a low C#5.


Intro and Verses:
(using REALLY PHAT DISTORTION!!)

db:-------------------------------------------------------|----- 
Ab:-------------------------------------------------------|----- 
Fb:-------------------------------------------------------|----- 
Cb:-----6------------6------------6-----------6-------1/2-|---6- 
Gb:-----6--x-x-x-----6--x-x-x-----6-x-x-x-----6-x-x---/\--|---6- 
Db:--0--4--x-x-x--0--4--x-x-x--0--4-x-x-x--0--4-x-x--7--7-|-0-4-          \_/
 pull off   (repeat...)


Refrain:
(using chorus, real light feel)

G#m (4th fret) A(5th fret)
slow... down...
(Do this back and forth)


Chorus:
(using that same distortion)

Let me...
E(open chord) C(3rd fret)
Ride! Let me...
(Do this back and forth)


The only other thing is at the very end, there's a riff which I
THINK is played by a guitar or possibly a keyboard, but I think it 
goes somthing like this, but I'm not completely sure.

     E      C
db:--------------------------| 
Ab:--------------------------| 
Fb:--------------------5-----| 
Cb:--------2--------5-----5--| 
Gb:-----2-----2--3-----------| 
Db:--0-----------------------| (repeat)

---OR---(it could be open picking, like this)

     E      C
db:--------------------------| 
Ab:--------------------------| 
Fb:--------------------1-----| 
Cb:--------2--------0-----0--| 
Gb:-----2-----2--3-----------| 
Db:--0-----------------------| (repeat)


And folks, that's pretty much it!
Piece it together and have fun!




































variations - click chord images
Transpose chords:
Tuning:
Cool service:
View: Size:
A  A  A
Rating:
Layout:
  • Currently 0/5 Stars.
  • 1
  • 2
  • 3
  • 4
  • 5
 
Accuracy:
  • Currently 2.2/5 Stars.
  • 1
  • 2
  • 3
  • 4
  • 5
 
click stars to rate
Chordie recommends:
Learn to play songs at Jamplay.com with video guitar lessons
Songbook:
Login to add this song to your songbook
Support the artist
Preview/buy this song
MSN Music
Why this non-profit ad?

 
login to add comments/video/corrections