black star

Malmsteen


Received: from animal-farm.nevada.edu by redrock.nevada.edu (5.65c/M1.4)
with SMTP id ; Thu, 5 Aug 1993 07:41:53 -0700
Received: from uicvm.uic.edu by animal-farm.nevada.edu id ; Thu, 5 Aug 1993 07:41:50 -0700
Received: from brfapesp.bitnet by UICVM.UIC.EDU (IBM VM SMTP V2R1)
   with BSMTP id 4780; Thu, 05 Aug 93 09:41:24 CDT
Received: from vortex.ufrgs.br by brfapesp.bitnet with PMDF#10108; Thu, 5 Aug
 1993 11:26 BSC (-0300 C)
Received: from inf.ufrgs.br (143.54.2.99) by vortex.ufrgs.br (PMDF V4.2-11
 #4493) id ; Thu, 5 Aug 1993 11:21:57 -0300
Received: from jarau.inf.ufrgs.br by inf.ufrgs.br (4.1/SMI-4.1) id AA11275;
 Thu, 5 Aug 93 11:23:40 EST
Received: from ituim.inf.ufrgs.br by jarau.inf.ufrgs.br (4.1/SMI-4.1) id
 AA09285; Thu, 5 Aug 93 11:25:37 EST
Date: Thu, 05 Aug 1993 11:25:37 -0500 (EST)

Subject: BlackStar.tab
To: jamesb@animal-farm.nevada.edu
Message-Id: 
X-Envelope-To: jamesb@animal-farm.nevada.edu
Content-Transfer-Encoding: 7BIT


               Black Star (Intro) - YNGWIE MALMSTEEN


Acoustic guitar
Timing 3/4

                ^^^^^^
E-----7-----|----------------|-----------------|--0-------2--3--|
B----7------|--8-------7--5--|--4tr5-----2--4--|----------------|
G---8-------|----------------|-----------------|----------------|
D-----------|----------------|--4--------------|----------------|
A--9--------|--7-------------|-----------0-----|----------------|
E-----------|----------------|-----------------|--3-------------|

                               ^^
E-----4-----|-----5--------------|-----6---------|-----7---------|
B----5------|----5---------------|----7----------|----8----7--5--|
G---4-------|---7-----5h7p5\4-5--|---6-----------|---9-----8--6--|
D-----------|--------------------|---------------|---------------|
A-----------|--0-----------------|---------------|---------------|
E--4--------|--------------------|--6----6--7--9-|--7------------|


      Harm..............................................|
E-------- 7-|-----12--------|--------------|-------12-----|-
B--7--------|-----------12--|-------7------|--12----------|-
G--8--------|---------------|--5--------7--|--------------|-
D-----------|---------------|--------------|--------------|-
A-----------|---------------|--------------|--------------|-
E------7----|-12------------|--------------|--------------|-


vibrato:   ^^^^^
pull-off:  p
hammer:    h
slide:     \
trill:     tr
Harmonics: Harm

---------------------------------------------------------------------
"When I open my eyes, I can only sigh, for what I see is contrary to
my creed: and I must despise the world for not perceiving that music
is a higher revelation than any wisdom or philosophy. It is the wine
that inspires new creations, and I am the Bacchus, who presses out
this wine for men, and makes them spiritually drunk; when they are
sober they bring to shore all kinds of things which they have caught.
God is nearer to me than to others. I approach him without fear, I
have always known him. Neither am I anxious about my music, which no
adverse fate can overtake, and which will free him who understands it
from the misery which afflicts others."
                                          LUDWIG VON BEETHOVEN
--------------------------------------------------------------------
James A. Miller - miller@inf.ufrgs.br
Federal University of Rio Grande do Sul - UFRGS
Porto Alegre - Brazil
--------------------------------------------------------------------







































variations - click chord images
Transpose chords:
Tuning:
Cool service:
View: Size:
A  A  A
Rating:
Layout:
  • Currently 0/5 Stars.
  • 1
  • 2
  • 3
  • 4
  • 5
 
Accuracy:
  • Currently 0/5 Stars.
  • 1
  • 2
  • 3
  • 4
  • 5
 
click stars to rate
Chordie recommends:
Learn to play guitar with video-based, online guitar lessons at JamPlay.com
Songbook:
Login to add this song to your songbook
Support the artist
Preview/buy this song
MSN Music
Why this non-profit ad?

 
login to add comments/video/corrections