dream a little dream of me

Mamas and The Papas


Subject: TAB:mamas_and_papas, dream_a_little_dream_of_me


Dream a little Dream of me
==========================
by: the mamas and the papas


The Intro, verse 1 and verse 2 is quite exactly, what the guitar plays
on my CD. The chords of verse 3 are OK too and my tabs sound quite good, 
although it's not exactly, what they play.


Intro:
                   C5-      B7       Do       G
|-------- --------|--3----- 5-------|--4----- --3-----|
|-------- --------|-------- --4-----|----6--- --------|  play the last
|-------- --------|------4- --------|------4- ----4---|  2 bars twice
|-------- ----0---|----5--- 4---4-5-|-------- ------5-|
|----2--- 3-------|3------- --------|-------- --------|
|------3- --3---3-|-------- --------|4---4--- 3-------|


Verse 1 and 2

 C5-      B7       Do       G        C                 A7
|--3----- 5-------|--4----- --3-----|-------- --------|-------- --------|
|-------- --4-----|----6--- --------|--1----- --1-----|-------- --------|
|------4- --------|------4- ----4---|------0- --------|-------- --------|
|----5--- 4---4-5-|-------- ------5-|----2--- --------|----7-5- ----7-5-|
|3------- --------|-------- --------|3------- 2---1---|-------- --------|
|-------- --------|4---4--- 3-------|-------- --------|5------- 5-------|

 F                 Fm                C        G#       G
|--1----- --------|4---1--- --------|-------- --------|-------- ---3---3|
|----1--- --1-----|--1---1- --------|--1----- --4-----|--3----- 3h5-3h5-|
|------2- 2-----2-|-------- --1---0-|------0- ----4---|----3--- --------|
|-------- ----3---|-------- ----3---|----2--- ------5-|------4- --------|
|-------- --------|-------- --------|3------- --------|-------- --------|
|1------- 1-------|1------- 1-------|-------- 4-------|3------- 3---3---|


                                     -------- 4---3---|0------- --------|
for verse 2 take                     --1----- 4---3---|1------- --------|
those two bars as                    ------0- 5---4---|0------- --------|
the end instead of                   ----2--- --------|-------- 2---2---|
the upper ones                       3------- --------|3---3--- --2---2-|
                                     -------- 4---3---|--3----- ---2---2|


verse 3

  A        F#m      B(7)     E
|--0---0- ----2---|--0---0- --0-----|play this 4 times ---4---- ---3----|
|---2--2- ----2---|---3--3- --0-----|                  ---4---- ---3----|
|---2--2- ----2---|---4--4- --1-----| the 4. time      ---5---- ---4----|
|----2--- --------|----4--- --------| replace the last -------- --------|
|0------- ----4---|2------- --------| bar by the one   ------6- ------5-|
|-------- 2-------|-------- 0---2-4-| on the right     4------- 3-------|


have fun playing it
Rainer 


Mamas and the Papas: Dream a Little Dream of Me

(Sorry, the lyrics's place not always correct)


        Intro
        =====

   __3__   __3__   __3__
   | | |   | | |   | | |
|------------------0-----|
|--2-------3-------------|
|------2-------2-------2-|
|------------------------|
|--0-------2-------4-----|
|------------------------| __3__    __3__   __3__   __3__   __3__
                           | | |    | | |   | | |   | | |   | | |
|------5-----------7-------7-----|------6---------------5---------|
|--7-------------------6---------|----------8-------7-------------|
|--------------6-----------------|--------------6-----------6-----|
|----------7-------6-------6---7-|------------------------------7-|
|--5-----------------------------|--------------------------------|
|--------------------------------|--6---------------5-------------|

|------------------7-------7-----|------6---------------5---------|
|------7---------------6---------|----------8-------7-------------|
|--7-----------6-----------------|--------------6-----------6-----|
|----------7-------6-------6---7-|------------------------------7-|
|--5-----------------------------|--------------------------------|
|--------------------------------|--6---------------5-------------|


        Verse 1, 2 and 3
        ================

|------------------7-------7-----|------6---------------5---------|
|------7---------------6---------|----------8-------7-------------|
|--7-----------6-----------------|--------------6-----------6-----|
|----------7-------6-------6---7-|------------------------------7-|
|--5-----------------------------|--------------------------------|
|--------------------------------|--6---------------5-------------|
           Stars   shining bright above          you
           Say  "night-ie-night" and kiss        me
           Sweet dreams till sunbeams find       you

|------------------5-------3-----|------2---------------2---------|
|------7-------------------------|--4-------4-------4-------4-----|
|--7-----------6-----------------|--------------2---------------2-|
|----------7---------------------|--------------------------------|
|--5---------------4-------3-----|--2---------------2-------------|
|--------------------------------|--------------------------------|
           Night  breezes seem to whisper        I  love you
           Just   hold me tight and tell me you'll  miss me
           Sweet  dreams that leave all worries behind you

|-----3--------------------3-----|---------3----------------------|
|----------3---------------------|--------------------------------|
|--------------4-------3-------4-|------3-------3-------3-------2-|
|--------------------------------|--------------------------5-----|
|--------------------------------|--------------------------------|
|--3---------------3-------------|--3-------3-------3-------------|
           Birds   singing in the   sycamore     tree
           While   I'm alone and    blue  as  can  be
           But in your dreams what  ever    they   be

  1
|--
|----------------------6---------|------5---------------5-------5-|
|------3-------------------------|----------5-------5h7-----5h7---|    End of
|--------------------------6---5-|--------------6-----------------| m     longing to    linger till dawn, dear

H            H             Hb7          A7
     Just    saying        this


        Nagy D niel
        nagyd@almos.vein.hu
        1994, Hungary








































variations - click chord images
Transpose chords:
Tuning:
Cool service:
View: Size:
A  A  A
Rating:
Layout:
  • Currently 0/5 Stars.
  • 1
  • 2
  • 3
  • 4
  • 5
 
Accuracy:
  • Currently 2.7/5 Stars.
  • 1
  • 2
  • 3
  • 4
  • 5
 
click stars to rate
Chordie recommends:
Get acoustic guitar lessons and electric guitar lessons at JamPlay.com
Songbook:
Login to add this song to your songbook
Support the artist
Preview/buy this song
MSN Music
Why this non-profit ad?

 
login to add comments/video/corrections