Guitar Tabs, Chords and Lyrics


everything must go   Manic Street Preachers









Date: Sat, 11 Oct 1997 09:16:24 +0100
From: Starla Iha 
Subject: Evertthing Must Go TAB

Here's a (almost) fully tabbed out version of Everything Must Go...

Artist: Manic Street Preachers
Song: Everything must go (tabbed version)
Album: Everything Must Go


Everything Must Go
-------------------

Intro
======
               | (Basic chord progression)     |
e--------------5--5-5---5--5-5---4--4-4---4--4-4------|
B--------------5--5-5---5--5-5---4--4-4---4--4-4------|
D--------------5--5-5---5--5-5---4--4-4---4--4-4------|
G-----------------------------------------------------|
A-2--7------------------------------------------------|
E-----------------------------------------------------|

Verse
======

e-5--5-5------------5--5-5-------4--4-4-----4--4-4----|
B-5--5-5------------5--5-5-------4--4-4-----4--4-4----|
D-5--5-5------------5--5-5-------4--4-4-----4--4-4----|
G-----------------------------------------------------|
A-----------------------------------------------------|
E-----------------------------------------------------|
 Shed some skin for the fear within,


e-5--5-5------------5--5-5-------4--4-4-----4--4-4----|
B-5--5-5------------5--5-5-------4--4-4-----4--4-4----|
D-5--5-5------------5--5-5-------4--4-4-----4--4-4----|
G-----------------------------------------------------|
A-----------------------------------------------------|
E-----------------------------------------------------|
 Shed some skin for the fear within,


e--4-4-4-4--------------------------------------------|
B--4-4-4-4-------5-5-4-------5-5-4--------------------|
D--4-4-4-4-------4-4-4-------4-4-4--------------------|
G----------------6-6-4-------6-6-4--------------------|
A-----------------------------------------------------|
E-----------------------------------------------------|
        Freed from the mem - ory

e---------------------0--0-0-----0--------------------|
B--5-5-4---5-5-4------1--1-1-----1--------------------|
D--4-4-4---4-4-4------2--2-2-----2--------------------|
G--6-6-4---6-6-4------2--2-2-----2--------------------|
A---------------------0--0-0-----0--------------------|
E-----------------------------------------------------|
      escape from our history,  history


Chorus
======

e-0--0-0--------0--0-0---------0--0-0----------------------|
B-0--0-0--------0--0-0---------1--1-1----------------------|
D-1--1-1--------1--1-1---------2--2-2----------------------|
G-2--2-2--------2--2-2---------2--2-2----------------------|
A-2--2-2--------2--2-2---------0--0-0----------------------|
E-0--0-0--------0--0-0-------------------------------------|
 And I just hope that you can for-give us, 


e-------0-----------------------0-2-----2----0-----2-------|
B---------0--------0-------3-------------------------------|
D-----------5----5---------2----0-2-----2----0-----2-------|
G-------------7--------------------------------------------|
A--5-7-----------------------------------------------------|
E----------------------------------------------------------|
				but everything must

e--0---0-0---0--|------------------------------------------|
B--0---0-0---0--|------------------------------------------|
D--1---1-1---1--|------------------------------------------|
G--2---2-2---2--|----2---2---2-2------2-2----2-2----2-2----|
A--2---2-2---2--|--2---2---2--------2------2------2--------|
E--0---0-0---0--|------------------------------------------|
   go.		              And if you need an ex - pla -


e----------------------0-------------------0--2------------|
B------------------------0--------0---3--------------------|
D--------------------------5----5-----2----0--2------------|
G------------------5-7-------7-----------------------------|
A---0-0-----0-0--------------------------------------------|
E-0-------0------------------------------------------------|
 - na - tion                                  Then


e--3---2---0---2------------------------------------------|
B---------------------------------------------------------|
D--3---2---0---2------------------------------------------|
G---------------------------------------------------------|
A---------------------5-7--5-5----------------------------|
E-----------------0-------------5-7--7-5--3-5-3--0--------|
  ev - ery -thing must go. 

Lyrics
=======

Verse 1
--------
Shed some skin for the fear within
It's starting to hurt me with everything
Freed from the memory
Escape from our history, history

Chorus
-------
And I just hope that you can forgive us
But everything must go
And if you need an explanation
then everything must go

Verse 2
-------
I look to the future it makes me cry
But it seems too real to tell you why
Freed from the century
With nothing but memory, memory

Freed us eventually
Just need to be happy, happy

-------
Chorus
-------

Ending
-------

And if you need an explanation, 'ation
Then everything must go


Back to Marigolds of Suicide?
Click here...







Important: The song above is NOT stored on the Chordie server. The original song is hosted at tabfu.thudspace.net. Chordie works as a search engine and provides on-the-fly formatting. Chordie does not index songs against artists'/composers' will. To remove this song please click here.

This song is displayed as text-only. Transposing and tuning is only available for chordpro-songs.

Login - add to songbook

Rating click stars to rate

Layout
Accuracy

SHARE PAGE  




You need to log in to post comments