Guitar Tabs, Chords and Lyrics


long hard road out of hell   Marilyn Manson








Date: Fri, 26 Dec 1997 22:33:54 EST
From: LandOfFuzz 
Subject: TAB: 'Long Hard Road Out of Hell' by Marilyn Manson

Song: Long Hard Road Out of Hell
By: Marilyn Manson (& the Sneaker Pimps)
This is track 2 off 'Spawn: The Album'
Tabbed by: The FUZZ

Here is my interpretation of 'Long Hard Road Out of Hell.'  This is a fun (and
easy) song by Marilyn Manson.  If you to email me about this tab or just want
to talk about music in general, send me some mail at   
LandOfFuzz@aol.com

When Marilyn starts speaking, here's the bass line for that part, which is the
bass line for the bulk of the song. (repeat this over and over)
"I wanna fly into your sun....etc, etc"
g-----------------------------------------------------------------
d-----------------------------------------------------------------
a-----------------------------------------------------------------
e-0-0-0-0-0-0-0-0-3-3-3-3-3-3-3-3-1-1-1-1-1-1-1-1-0-0-0-0-0-0-0-0-

This acoustic guitar part corresponds with these lines at the beginning of the
song:

"Oh Mary, Mary
To be so sure it's oh so scary
Mary, Mary
To be so sure I'm oh so scared
I wanna live, I wanna love
but it's a long hard road out of hell
I wanna live, I wanna love
but it's a long hard road out of hell"
e:----------------------------------------------------------------
B:----------------------------------------------------------------
G:----------------------------------------------------------------
D:-0-0-0-0-0-0-0-0-3-3-3-3-3-3-3-3-1-1-1-1-1-1-1-1-0-0-0-0-0-0-0-0
A:-0-0-0-0-0-0-0-0-3-3-3-3-3-3-3-3-1-1-1-1-1-1-1-1-0-0-0-0-0-0-0-0
E:-0-0-0-0-0-0-0-0-3-3-3-3-3-3-3-3-1-1-1-1-1-1-1-1-0-0-0-0-0-0-0-0


Here's the electric part (same as acoustic) which is a little hard to hear
among all the cool keyboards and drums in the chorus:

"You're not a saint forever
You'll never hurt like this
You're not a saint forever
You'll never hurt like this"
e:----------------------------------------------------------------
B:----------------------------------------------------------------
G:----------------------------------------------------------------
D:-0-0-0-0-0-0-0-0-3-3-3-3-3-3-3-3-1-1-1-1-1-1-1-1-0-0-0-0-0-0-0-0
A:-0-0-0-0-0-0-0-0-3-3-3-3-3-3-3-3-1-1-1-1-1-1-1-1-0-0-0-0-0-0-0-0
E:-0-0-0-0-0-0-0-0-3-3-3-3-3-3-3-3-1-1-1-1-1-1-1-1-0-0-0-0-0-0-0-0

Note: the acoustic and electric guitar parts are repeated at other times
during the song, what I listed above is just when these parts are heard for
the first time during the song.  

Here's the way I interpreted the lyrics.  It may not be perfect, but you can't
say I didn't try =)

I wanna fly into your sun
Be prepared to make me numb
Live like a teenage Christ
I'm a saint, got date with suicide
Oh Mary, Mary
To be so sure it's oh so scary
Mary, Mary
To be so sure I'm oh so scared
I wanna live, I wanna love
but it's a long hard road out of hell
I wanna live, I wanna love
but it's a long hard road out of hell
You're not a saint forever
You'll never hurt like this
You're not a saint forever
You'll never hurt like this
do do do do do do do do do do do do do do
Spread my way out of hell
There's nothing left, (not) a soul to sell
I live fast, I die fast too
How many times I do this for you...
How many times I do this for you...
Mary, Mary
To be so sure I'm oh so scared
I wanna live, I wanna love
but it's a long hard road out of hell
I wanna live, I wanna love
but it's a long hard road out of hell
You're not a saint forever
You'll never hurt like this
You're not a saint forever
You'll never hurt like this
do do do do do do do do do do do do do do
I wanna live, I wanna love
but it's a long hard road out of hell
I wanna live, I wanna love
but it's a long hard road OUT OF HELL
LONG HARD ROAD OUT OF HELL
I wanna live, I wanna love
but it's a long hard road out of hell
I'll sell my soul for anything 
Anything, but you
Sell my soul for anything 
Anything, but you







Important: The song above is NOT stored on the Chordie server. The original song is hosted at tabfu.thudspace.net. Chordie works as a search engine and provides on-the-fly formatting. Chordie does not index songs against artists'/composers' will. To remove this song please click here.

This song is displayed as text-only. Transposing and tuning is only available for chordpro-songs.

Login - add to songbook

Rating click stars to rate

Layout
Accuracy

SHARE PAGE  




You need to log in to post comments