get up stand up

Bob Marley


From: Kevin Gardner 
Date: Tue, 20 Jun 1995 13:54:24 -0400
Subject: /m/bob_marley/get_up_stand_up.tab

Get Up Stand Up
---------------

by Bob Marley and the Wailers

transcribed by kevin gardner
               code@wam.umd.edu

intro 
 -----------------------------------
 -----------------------------------
 -----------------------------------
 -----------------------------------
 -----------------------------------
 -x-6-6-x-6-6---x-6-8---x-6-6-x-6-6-

this is played twice 


tthe other guitar plays Cm for the rest of the song

Cm looks like this...
                     -8-
                     -8-
                     -8-
                     -6-
                     -6-
                     -8-

this is played twice 

all notes played wityh right hand
palm mute

chorus riff
-----|-------------|-----------|-------------|-------------
-----|-------------|-----------|-------------|-------------
-----|-------------|-----------|-------------|-------------
-----|-5-----------|---5-------|-5-----------|-------5---3-
-----|---6-5-6-5---|-6---------|---6-5-6-5---|-----6---6---
-6-8-|-----------8-|-----3-6-8-|-----------8-|-8-8---------


verse riff
-----------|------------
-----------|------------
---------7-|------------
-------5---|-8-----5----
---6-8-----|---6-8------
-8---------|--------6-8-








































variations - click chord images
Transpose chords:
Tuning:
Cool service:
View: Size:
A  A  A
Rating:
Layout:
  • Currently 0/5 Stars.
  • 1
  • 2
  • 3
  • 4
  • 5
 
Accuracy:
  • Currently 2.8/5 Stars.
  • 1
  • 2
  • 3
  • 4
  • 5
 
click stars to rate
Chordie recommends:
Learn how to play guitar at JamPlay.com
Songbook:
Login to add this song to your songbook
Support the artist
Preview/buy this song
MSN Music
Why this non-profit ad?

 
login to add comments/video/corrections