Guitar Tabs, Chords and Lyrics


doomed by the living dead   Mercyful Fate








From: "patrick miniaci" 
Date: Sat, 18 Apr 1998 15:04:54 -0400

BY: MERCYFUL FATE
TITLE: DOOMED BY THE LIVING DEAD
ALBUM: THE BEGING
TRASCRIPTION: "EVIL" STEF
CONVERSION TO TEXT: JASON MINIACI


e-|--------------------------------|-------------------|
B-|--------------------------------|-------------------|
G-|--------------------------------|-------------------|
D-|--------------------------------|-------------------|
A-|--------------------------------|-------------------|
E-|--3-A.H-\/\/\/\/\/\/\/\/\/\/\/--|-0-0-0-0-0-0-0-0---|
    (feed back)
   
   (Riff 1) 2times
e-|---------------------------|------|--------|
B-|---------------------------|------|--------|
G-|---------------------------|------|-----3--|
D-|--2-------4-----------5~~~-|-3~~--|--3--3--|
A-|--2-------4-----------5~~~-|-3~~--|--3--1--|
E-|--0-0-0-0-2-0-0-0-0-0-3~~~-|-1~~--|--1-----|
                              |1.    |2.
   
   (rythm under the solo) 2times
e-|---------------------------|------|--------|
B-|---------------------------|------|--------|
G-|---------------------------|------|-----3--|
D-|--2-------4-----------5~~~-|-3~~--|--3--3--|
A-|--2-------4-----------5~~~-|-3~~--|--3--1--|
E-|--0-0-0-0-2-0-0-0-0-0-3~~~-|-1~~--|--1-----|
                              |1.    |2.
 
   MAIN RIFF
e-|-------------------------|--------|---------|
B-|-------------------------|--------|---------|
G-|-------------------------|--------|-----3---|
D-|--2-------4-----------5--|--5--3--|--3--3---|
A-|--2-------4-----------5--|--5--3--|--3--1---|
E-|--0-0-0-0-2-0-0-0-0-0-3--|--3--1--|--1------|
                            |1.      |2.
       I'm       back        again, 
       back      in   the             evil night, 
      and      you're       waiting 
      Doomed      by    the           living dead,







e-|-------------------------------|-----------|----------------|
B-|-------------------------------|-----------|----------------|
G-|-------------------------------|-----------|----------------|
D-|-----------------------4-------|-5-------4-|-5--5-5-5-4-4-4-|
A-|-0-0-0-0-0-0-0-0-0-0-0-2-0-0-0-|-3-0-0-0-2-|-3--3-3-3-2-2-2-|
E-|-------------------------------|-----------|----------------|           
                         |1.         |2.
       flames           are           rising,   
        can't    you     see                   you're dying 

  (rythm under the solo) 1time
e-|---------------------------|------|--------|
B-|---------------------------|------|--------|
G-|---------------------------|------|-----3--|
D-|--2-------4-----------5~~~-|-3~~--|--3--3--|
A-|--2-------4-----------5~~~-|-3~~--|--3--1--|
E-|--0-0-0-0-2-0-0-0-0-0-3~~~-|-1~~--|--1-----|
                              |1.    |2.


e-|-------------------------|--------|---------|
B-|-------------------------|--------|---------|
G-|-------------------------|--------|-----3---|
D-|--2-------4-----------5--|--5--3--|--3--3---|
A-|--2-------4-----------5--|--5--3--|--3--1---|
E-|--0-0-0-0-2-0-0-0-0-0-3--|--3--1--|--1------|
                            |1.      |2.
      The     wolves   are    howlin', 
      a   baby's   cry   in           the distance,
      cold    winds           blowing 
     in      the     dead              of night, 

e-|-------------------------------|-----------|----------------|
B-|-------------------------------|-----------|----------------|
G-|-------------------------------|-----------|----------------|
D-|-----------------------4-------|-5-------4-|-5--5-5-5-4-4-4-|
A-|-0-0-0-0-0-0-0-0-0-0-0-2-0-0-0-|-3-0-0-0-2-|-3--3-3-3-2-2-2-|
E-|-------------------------------|-----------|----------------|           
                         |1.         |2.
       flames           are           rising,   
        can't    you     see                   you're dying 





   2times
e-|-----------------------------------------------------------|
B-|-----------------------------------------------------------|
G-|-----------------------------------------------------------|
D-|---7--9--4-5----5-5-5----5--4--4-4-4---4--2----------------|
A-|---5--7--2-3----3-3-3----7--5--5-5-5---2--0----------------|
E-|----------------------------------------------3--2--0------|
                   ' ' '          ' ' '
      No   way    to survive     this     evil      night, 
      if   the     dead       won't      leave  you  alone 

e-|-------------------------------------------------------------|
B-|-------------------------------------------------------------|
G-|--3----3-3-3---3-3-3---3-3-4---4-----------------------------|
D-|--3----3-3-3---3-3-3---3-3-4---4--2--------------------------|
A-|--1----1-1-1---1-1-1---1-1-2---2--0--------------------------|
E-|--------------------------------------3--2--0----------------|
   So just say goodbye to all your holy angels, you're gonna die

e-|------------------------|----------------|-------------------|
B-|------------------------|----------------|-------------------|
G-|-3--3-3-3--3-3-3--3-3-5-|-5-5-5----5-5-5-|-7-7-7------7-7-7--|
D-|-3--3-3-3--3-3-3--3-3-5-|-5-5-5----5-5-5-|-7-7-7------7-7-7--|
A-|-1--1-1-1--1-1-1--1-1-3-|-3-3-3----3-3-3-|-5-5-5------5-5-5--|
E-|------------------------|----------------|-------------------|
  |                        |                |                   |
e-|------------------------|----------------|-------------------|
B-|------------------------|----------------|-------------------|
G-|------------------------|--------------2-|----------------7~\|
D-|----------------------5-|---------2--5---|------------7-9----|
A-|-1~~~--1/5-----7--------|-3~~3--5--------|-5~~(5)/7/9--------|
E-|------------------------|----------------|-------------------|

   Solo Rythm  8times
e-|----------------------------------------|-----|-----|-----|
B-|----------------------------------------|-----|-----|-----|
G-|----------------------------------------|-----|-----|-----|
D-|-----2--------2--------2--------2-------|--4--|--5--|--7--|
A-|--4--0--4--2--0--4--4--0--4--2--0--2--4-|--2--|--3--|--5--|
E-|--2-----2--0-----2--2-----2--0-----0--2-|-----|-----|-----|









   play 6 times with out lyrics and 2 times with lyrics
e-|-------------------------------|-----------------------------|
B-|-------------------------------|-------------------7b--5--7~~|
G-|-2------7p5----5-----------5-5-|-2-----7p5---5-----7b--5--7~~|
D-|-2------7p5-7--5-----------5-5-|-2-----7p5-7-5---------------|
A-|-0-0-0------7-----0-0-0-0------|-0-0-0-----7---0-0-----------|
E-|-------------------------------|-----------------------------|
      ' '            ' ' ' '          ' '         ' ' 
     Long       black        hair,   face    like   a      dead, 
     I            am        here,    Satan    in     my     head 

 
   (rythm under the solo) 2times
e-|---------------------------|------|--------|
B-|---------------------------|------|--------|
G-|---------------------------|------|-----3--|
D-|--2-------4-----------5~~~-|-3~~--|--3--3--|
A-|--2-------4-----------5~~~-|-3~~--|--3--1--|
E-|--0-0-0-0-2-0-0-0-0-0-3~~~-|-1~~--|--1-----|
                              |1.    |2.
 
e-|-------------------------|--------|---------|
B-|-------------------------|--------|---------|
G-|-------------------------|--------|-----3---|
D-|--2-------4-----------5--|--5--3--|--3--3---|
A-|--2-------4-----------5--|--5--3--|--3--1---|
E-|--0-0-0-0-2-0-0-0-0-0-3--|--3--1--|--1------|
                            |1.      |2.
     You       can't    see   nothing  
     but            confusing          mirrors, 
     now        you      feel   it 
     It's         getting               nearer,

e-|-------------------------------|-----------|----------------|
B-|-------------------------------|-----------|----------------|
G-|-------------------------------|-----------|----------------|
D-|-----------------------4-------|-5-------4-|-5--5-5-5-4-4-4-|
A-|-0-0-0-0-0-0-0-0-0-0-0-2-0-0-0-|-3-0-0-0-2-|-3--3-3-3-2-2-2-|
E-|-------------------------------|-----------|----------------|           
                         |1.         |2.
       flames           are           rising,   
        can't    you     see                   you're dying 







  (rythm under the solo) 1time
e-|---------------------------|------|--------|
B-|---------------------------|------|--------|
G-|---------------------------|------|-----3--|
D-|--2-------4-----------5~~~-|-3~~--|--3--3--|
A-|--2-------4-----------5~~~-|-3~~--|--3--1--|
E-|--0-0-0-0-2-0-0-0-0-0-3~~~-|-1~~--|--1-----|
                              |1.    |2.

e-|-------------------------|--------|---------|
B-|-------------------------|--------|---------|
G-|-------------------------|--------|-----3---|
D-|--2-------4-----------5--|--5--3--|--3--3---|
A-|--2-------4-----------5--|--5--3--|--3--1---|
E-|--0-0-0-0-2-0-0-0-0-0-3--|--3--1--|--1------|
                            |1.      |2.
     So    dark     in      your mind, 
     breath     of    Satan          in my back, 
     I    can't       help        you 
     cause     'm    one of          the dead,

e-|-------------------------------|-----------|----------------|
B-|-------------------------------|-----------|----------------|
G-|-------------------------------|-----------|----------------|
D-|-----------------------4-------|-5-------4-|-5--5-5-5-4-4-4-|
A-|-0-0-0-0-0-0-0-0-0-0-0-2-0-0-0-|-3-0-0-0-2-|-3--3-3-3-2-2-2-|
E-|-------------------------------|-----------|----------------|           
                         |1.         |2.
       flames           are           rising,   
        can't    you     see                   you're dying 

  2times
e-|-----------------------------------------------------------|
B-|-----------------------------------------------------------|
G-|-----------------------------------------------------------|
D-|---7--9--4-5----5-5-5----5--4--4-4-4---4--2----------------|
A-|---5--7--2-3----3-3-3----7--5--5-5-5---2--0----------------|
E-|----------------------------------------------3--2--0------|
                   ' ' '          ' ' '
      No   way    to survive     this     evil      night, 
      if   the       dead    won't      leave  you  alone 

e-|--------------------------------------------------------|
B-|--------------------------------------------------------|
G-|--------------------------------------------------------|
D-|--4--2--------------------------------------------------|
A-|--2--0------------4---4--2--4---4--4--4--4--4--4--4--4--|
E-|--------3--2--0---2---2--0--2---2--2--2--2--2--2--2--2--|
    ...So just say goodbye to all your fuckin' angels. OH!!!
          
e-|-----------------------------------------------------------|
B-|-----------------------------------------------------------|
G-|--2p0-------------------------2p0--------------------------|
D-|--2p0-2---------2h3-2---------2p0-2---------2-----5---5--2-|
A-|------2---------2h3-2-------------2---------2-----5---5--2-|
E-|--------0-0-0-0-------0-0-0-0-------0-0-0-0---0-0---0------|
           ' ' ' '       ' ' ' '       ' ' ' '   ' '   '   

e-|-----------------------------------------------------------|
B-|-----------------------------------------------------------|
G-|--2p0-------------------------2p0--------------------------|
D-|--2p0-2---------2h3-0---------2p0-2---------2-----5---5--2-|
A-|------2---------2h3-0-------------2---------2-----5---5--2-|
E-|--------0-0-0-0-------0-0-0-0-------0-0-0-0---0-0---0------|
           ' ' ' '       ' ' ' '       ' ' ' '   ' '   '   

e-|-----------------------------------------------------------|
B-|-----------------------------------------------------------|
G-|--2p0-------------------------2p0--------------------------|
D-|--2p0-2---------2h3-2---------2p0-2---------2-----5---5--2-|
A-|------2---------2h3-2-------------2---------2-----5---5--2-|
E-|--------0-0-0-0-------0-0-0-0-------0-0-0-0---0-0---0------|
           ' ' ' '       ' ' ' '       ' ' ' '   ' '   '   

e-|-----------------------------------------------------------|
B-|-----------------------------------------------------------|
G-|--2p0-------------------------2p0--------------------------|
D-|--2p0-2---------2h3-0---------2p0-2---------2-----5---5--2-|
A-|------2---------2h3-0-------------2---------2-----5---5--2-|
E-|--------0-0-0-0-------0-0-0-0-------0-0-0-0---0-0---0------|
           ' ' ' '       ' ' ' '       ' ' ' '   ' '   '   
                    |(play 5 times)
e-|-----------------|----------------------------------------|
B-|-----------------|----------------------------------------|
G-|-----------------|--8/9----11/12-----8/9------------------|
D-|-----------------|--8/9----11/12-----8/9--7/8-------------|
A-|-----------------|--6/7-----9/10-----6/7--7/8-------------|
E-|-0-0-0-0-0-0-0-0-|------0-0------0-0------5/6--0-0-0-0----|
    ' ' ' ' ' ' ' '        ' '      ' '           ' ' ' '

e-|-----------------------|---------|---------|---------|---|---|
B-|-----------------------|---------|---------|---------|---|---|
G-|-8/8-----12\11---9--7--|---------|---------|---------|---|-9\|
D-|-8/8-----12\11---9--7--|---------|---------|---------|-5-|-9\|
A-|-6/6-----10\9----7--5--|-9-8-7-5-|-9-8-7-5-|-9-8-7-5-|-3-|-7\|
E-|-----0-0-------0-------|-7-6-5-3-|-7-6-5-3-|-7-6-5-3-|---|-0-|
        ' '       '         ' ' ' '   ' ' ' '   ' ' ' ' 

a big huge thanks goes to "EVIL" STEF from Montreal, this would have not
been possible with out his transciption,

THANKS STEF


also if any one has the lead solos for this song or any other mf or kd
songs let me know i will either trade or buy it from you,i have a huge
collection of rare mercyful fate and king diamond recording that i can
trade. thanks

my e-mail    pminiaci@penn.com








Important: The song above is NOT stored on the Chordie server. The original song is hosted at tabfu.thudspace.net. Chordie works as a search engine and provides on-the-fly formatting. Chordie does not index songs against artists'/composers' will. To remove this song please click here.

This song is displayed as text-only. Transposing and tuning is only available for chordpro-songs.

Login - add to songbook

Rating click stars to rate

Layout
Accuracy

SHARE PAGE  




You need to log in to post comments