Guitar Tabs, Chords and Lyrics


boring planet   Millencolin









Date: Tue, 13 Jan 1998 10:49:35 -0500
From: Stash Fortier 
Subject: TAB: Boring Planet by Millencolin

-----------------------------------------------------------------------
                        MILLENCOLIN-BORING PLANET
-----------------------------------------------------------------------

By:Stash Fortier(stash@nt.net)

INTRO GUITAR 1
e|-----------------------5-5------------------------------------5-5---|
B|-7-7^5---5--7------7^5-----5—7^5---5---7-7^5-----5--7-----7^5-------|
G|-------7------X2-----------------7------------7-------x2------------|
D|--------------------------------------------------------------------|
A|--------------------------------------------------------------------|
E|--------------------------------------------------------------------|

e|--------------5-5--5-5-5--------------------------------------------|
B|-5—7^5----5---------------------------------------------------------|
G|--------7---7-------------------------------------------------------|
D|--------------------------------------------------------------------|
A|--------------------------------------------------------------------|
E|--------------------------------------------------------------------|

INTRO GUITAR 2, PART 1
e|--------------------------------------------------------------------|
B|--------------------------------------------------------------------|
G|-7-7-7-7-7-7-7-7-------------------4-4-4-4-4-4-4-4------------------|
D|-7-7-7-7-7-7-7-7--5-5-5-5-5-5-5-5--4-4-4-4-4-4-4-4--7-7-7-7-7-7-7-7-X2

A|-5-5-5-5-5-5-5-5--5-5-5-5-5-5-5-5--2-2-2-2-2-2-2-2--7-7-7-7-7-7-7-7-|
E|------------------3-3-3-3-3-3-3-3-------------------5-5-5-5-5-5-5-5-|

INTRO GUITAR 2, PART 2
e|--------------------------------------------------------------------|
B|--------------------------------------------------------------------|
G|--------------------------------------------------------------------|
D|-7-7-7-7-7-7-7-7--7-7-7-7-7-7-7-7--7-7--7-7-7-7-7-------------------|
A|-7-7-7-7-7-7-7-7--7-7-7-7-7-7-7-7--7-7--7-7-7-7-7-------------------|
E|-5-5-5-5-5-5-5-5--5-5-5-5-5-5-5-5--5-5--5-5-5-5-5-------------------|
   PM.............

VERSE
e|--------------------------------------------------------------------|
B|--------------------------------------------------------------------|
G|-7-7-----------------------------------------ALL---x2---------------|
D|-7-7-7-7--5-5-5-5-5-5-X3-7--7-7-7-7-7-7-7-7--VERSE----7-7-7-7-7-7-7-|
A|-5-5-7-7--5-5-5-5-5-5----7--7-7-7-7-7-7-7-7-----------7-7-7-7-7-7-7-|
E|-----5-5--3-3-3-3-3-3----5--5-5-5-5-5-5-5-5-----------5-5-5-5-5-5-5-|
                              PM.............

CHORUS-SAME AS VERSE WITH EXCEPTION

EXCEPTION-REPLACE INTRO GUITAR 2, PART 2 WITH
e|--------------------------------------------------------------------|
B|--------------------------------------------------------------------|
G|-7-7-7-7------------------------------------------------------------|
D|-7-7-7-7-5-5-5-5-9-9-9-9-7-7-7-7--X2--7---/-12----------------------|
A|-5-5-5-5-5-5-5-5-9-9-9-9-7-7-7-7------7--/--12----------------------|
E|---------3-3-3-3-7-7-7-7-5-5-5-5------5-/---10----------------------|
   PM.............................

REPEAT VERSE
REPEAT CHORUS WITHOUT GUITAR 2, PART 2 OR EXCEPTION

BRIDGE GUITAR 1                          GUITAR 2
e|--------------------------------------|-----------------------------|
B|--------------------------------------|-7---------------------------|
G|-7-7-7-7------------------------------|---7----X7-------------------|
D|-7-7-7-7-5-5-5-5-9-9-9-9-7-7-7-7--X7--|-----------------------------|
A|-5-5-5-5-5-5-5-5-9-9-9-9-7-7-7-7------|-----------------------------|
E|---------3-3-3-3-7-7-7-7-5-5-5-5------|-----------------------------|
   PM.............................

REPEAT CHORUS X3 WITHOUT GUITAR 2, PART 2 OR EXCEPTION

END GUITAR 1                                GUITAR 2
e|-----------------------------------------|--------------------------|
B|-7-5---2--15-13-11-13---19-17-15-17---15-|--------------------------|
G|-----7-----------------------------------|--------------------------|
D|-----------------------------------------|--------------------------|
A|-----------------------------------------|--------------------------|
E|-----------------------------------------|--------------------------|

LYRICS

VERSE
When i was a kid i thought i could fly
Threw myself out of a window, right out into the sky
Now when I am older I know that i could die
Die from a depression, I would learn my lesson well

CHORUS
Life's so normal, nothing's shoking
Boring planet, cause no one here is rocking
Life's so tragic, nothing's clocking
Boring planet cause no one's rocking hard

VERSE
When I was a kid I thought that I was strong
The girls in school got beaten up by me every day long
Now when I am older i know that it was wrong
To deal with girls in the first place, cause a broken heart is now the
case
I'm broken hearted in disgrace

BRIDGE
It's a boring planet, we're just lying to ourselves
It's a boring planet, thanks to us and no one else
=======================================================================







Important: The song above is NOT stored on the Chordie server. The original song is hosted at tabfu.thudspace.net. Chordie works as a search engine and provides on-the-fly formatting. Chordie does not index songs against artists'/composers' will. To remove this song please click here.

This song is displayed as text-only. Transposing and tuning is only available for chordpro-songs.

Login - add to songbook

Rating click stars to rate

Layout
Accuracy

SHARE PAGE  




You need to log in to post comments