Guitar Tabs, Chords and Lyrics


twenty two   Millencolin









Sent: Thursday, January 15, 1998 10:53 AM
To: guitar@olga.net
Subject: (no subject)
-----------------------------------------------------------------------
                        TWENTY TWO by MILLENCOLIN
-----------------------------------------------------------------------
By: Stash Fortier(stash@nt.net)

b=bend

VERSE
e|--------------------------------------------------------------------|
B|--------------------------------------------------------------------|
G|-7-7-7-7-7-7-7-7-7-7-7-7-------------5-5-5-5-----------5-5-5-5------|
D|-7-7-7-7-7-7-7-7-7-7-7-7-X2-7-7-7-7--5-5-5-5--3-3-3-3--5-5-5-5—X3---|
A|-5-5-5-5-5-5-5-5-5-5-5-5----7-7-7-7--3-3-3-3--3-3-3-3--3-3-3-3------|
E|----------------------------5-5-5-5-----------1-1-1-1---------------|

e|--------------------------------------------------------------------|
B|--------------------------------------------------------------------|
G|----------5-5-5-5---------------------------------------------------|
D|-7-7-7-7--5-5-5-5--3-3-3-3-3-3-3-3--5-5-5-5—-3-3-3-3----------------|
A|-7-7-7-7--3-3-3-3--3-3-3-3-3-3-3-3--5-5-5-5--3-3-3-3----------------|
E|-5-5-5-5-----------1-1-1-1-1-1-1-1--3-3-3-3--1-1-1-1----------------|

CHORUS
e|--------------------------------------------------------------------|
B|--------------------------------------------------------------------|
G|---------------------------------------------------7-7-7-7-7-7-7-7--|
D|-7-7-7-7-7-7-7-7--3-3-3-3-3-3-3-3--5-5-5-5-5-5-5-5-7-7-7-7-7-7-7-7-7|
A|-7-7-7-7-7-7-7-7--3-3-3-3-3-3-3-3--5-5-5-5-5-5-5-5-5-5-5-5-5-5-5-5-7|
E|-5-5-5-5-5-5-5-5--1-1-1-1-1-1-1-1--3-3-3-3-3-3-3-3-----------------5|

VERSE 2
e|--------------------------------------------------------------------|
B|--------------------------------------------------------------------|
G|----------7-7-7-7-----------7-7-7-7-X3----------7-7-7-7-------------|
D|-9-9-9-9--7-7-7-7--5-5-5-5--7-7-7-7----9-9-9-9--7-7-7-7--5-5-5-5----|
A|-9-9-9-9--5-5-5-5--5-5-5-5--5-5-5-5----9-9-9-9--5-5-5-5--5-5-5-5----|
E|-7-7-7-7-----------3-3-3-3-------------7-7-7-7-----------3-3-3-3----|

e|--------------------------------------------------------------------|
B|--------------------------------------------------------------------|
G|--------------------------------------------------------------------|
D|-5-5-5-5—-7-7-7-7--5-5-5-5------------------------------------------|
A|-5-5-5-5--7-7-7-7--5-5-5-5------------------------------------------|
E|-3-3-3-3--5-5-5-5--3-3-3-3------------------------------------------|

CHORUS 2
e|--------------------------------------------------------------------|
B|--------------------------------------------------------------------|
G|-------------------------------------------------9-9-9-9-9-9-9-9----|
D|-9-9-9-9-9-9-9-9-5-5-5-5-5-5-5-5-7-7-7-7-7-7-7-7-9-9-9-9-9-9-9-9-9--|
A|-9-9-9-9-9-9-9-9-5-5-5-5-5-5-5-5-7-7-7-7-7-7-7-7-7-7-7-7-7-7-7-7-9--|
E|-7-7-7-7-7-7-7-7-3-3-3-3-3-3-3-3-5-5-5-5-5-5-5-5-----------------7--|

SOLO GUITAR 1
e|--------------------------------------------------------------------|
B|------------------8b-8b--8------------------------------------------|
G|---------------------------11-9--------9-10-9----9-10-9----9--13-12-|
D|-------------X6-----------------11---9---------9---------9----------|
A|-2--4--5--7---------------------------------------------------------|
E|--------------------------------------------------------------------|

e|----------14--------------------------12----------------9b-9b-9b----|
B|----14-16----16-14--9--------------8b----10-8--8b-8b-8b-------------|
G|-13-------------------9-10-12-10-9----------------------------------|
D|--------------------------------------------------------------------|
A|--------------------------------------------------------------------|
E|--------------------------------------------------------------------|

SOLO GUITAR 2
e|--------------------------------------------------------------------|
B|--------------------------------------------------------------------|
G|--------------9-9-9-9----------------------------------9-9-9-9------|
D|-11-11-11-11--9-9-9-9-7-7-7-7--9-9-9-9-X3-11-11-11-11--9-9-9-9------|
A|-11-11-11-11--7-7-7-7-7-7-7-7--9-9-9-9----11-11-11-11--7-7-7-7------|
E|-9--9--9--9-----------5-5-5-5--7-7-7-7----9--9--9--9----------------|

e|--------------------------------------------------------------------|
B|--------------------------------------------------------------------|
G|--------------------------------------------------------------------|
D|-7-7-7-7---7-7-7----------------------------------------------------|
A|-7-7-7-7---7-7-7----------------------------------------------------|
E|-5-5-5-5---5-5-5----------------------------------------------------|

CHORUS 3
e|--------------------------------------------------------------------|
B|--------------------------------------------------------------------|
G|--------------------------------------------------------------------|
D|-11-11-11-11-11-11-11-11--7-7-7-7-7-7-7-7--9-9-9-9-9-9-9-9----------|
A|-11-11-11-11-11-11-11-11--7-7-7-7-7-7-7-7--9-9-9-9-9-9-9-9----------|
E|-9--9--9--9--9--9--9--9---5-5-5-5-5-5-5-5--7-7-7-7-7-7-7-7----------|

e|--------------------------------------------------------------------|
B|--------------------------------------------------------------------|
G|-11-11-11-11-11-11-11-11--------------------------------------------|
D|-11-11-11-11-11-11-11-11-11-11-11-11-11-11-11-11--------------------|
A|-9--9--9--9--9--9--9--9--11-11-11-11-11-11-11-11--------------------|
E|-------------------------9--9--9--9--9--9--9--9---------------------|

e|--------------------------------------------------------------------|
B|--------------------------------------------------------------------|
G|--------------------------------------------------------------------|
D|-7-7-7-7-7-7-7-7--9-9-9-9-9-9-9--7-7-7-7-7-7-7-7----X2--------------|
A|-7-7-7-7-7-7-7-7--9-9-9-9-9-9-9--7-7-7-7-7-7-7-7--------------------|
E|-5-5-5-5-5-5-5-5--7-7-7-7-7-7-7--5-5-5-5-5-5-5-5--------------------|

LYRICS

VERSE 1
I'm one year older now since last time i saw you
In case you wanna know, I'm about to say what i'm up to
First of all I'm a sluggard movin' in a slow clumsy way
Some peace of mind is what i want, but that will be the day
I've been going with the flow for too long now, this must end
Runnin' round in circles, I've been so far away from myself
Searching for the energy and the time to make a change in my life
Instead of watching it pass by, get something done while i'm alive

CHORUS(all)
I'm twenty two, don't know what i'm supposed to do
Or how to be, to get some more out of me
I'm twenty two, so far away from all my dreams
I'm twenty two, feeling blue

VERSE 2

I try to activate myself the best i can
So that boredom won't catch up with me, I've got my daily plan
Wake up late, then rehearse a bit with the band, i guess it's cool?
Later when I'm home again i boil a note or two
Then i goto bed that's what i do

Afraid that I will be weak forever
I can't stay in this shape any longer
My life's just another cliche

stash@nt.net for comments/questions
=======================================================================









Important: The song above is NOT stored on the Chordie server. The original song is hosted at tabfu.thudspace.net. Chordie works as a search engine and provides on-the-fly formatting. Chordie does not index songs against artists'/composers' will. To remove this song please click here.

This song is displayed as text-only. Transposing and tuning is only available for chordpro-songs.

Login - add to songbook

Rating click stars to rate

Layout
Accuracy

SHARE PAGE  




You need to log in to post comments